Song name
# A B C D E F G H I J K L M N O P Q R S T U V W X Y Z

Foo Fighters - But Honestly tab

Highlighted       Show chord diagrams
But Honestly
Foo Fighters


Tuned Standard

Intro:
E B | A
E B | A

Verse 1:
E         B                A
Where you off to with that head of yours
E         B                   A
Is there somewhere you should be 
E        B               A
Was it something that I said the time I held you down 
     E                 B              A--
And told you it's not you, it's only me, maybe 

Chorus 1:
      C#m       E       F#
Don't take what I don't mean 
(Give me back my piece of mind) 
      C#m      E       F#
Don't say what I don't mean 
(Give me back my precious time) 
   C#m        E       F#
No way you'll silence me 
       E
You'll see 

Verse 2:
What you up to now your mirrors gone 
Is there someone you should be 
Did you think I was just fooling 'round with you 
But honestly
But honestly
But honestly 

Chorus 2:
Don't take what I don't mean 
(Give me back my piece of mind) 
Don't say what I don't mean 
(Give me back my precious time) 
No way you'll silence me 
(Give me back my piece of mind) 
Nowhere to hide from me 
You'll see 

Bridge:
B                     C#m
Enter not I thank the stars 
                    C
As I count my lucky scars 
                            E
For everything you've given me 
B                           C#m
And all the words I gave to you 
                               C--
Something borrowed something blue 
                    
If you want them back 

Outro (4x):
            E
I'll give it to you 
         D
Give it to you
         C 
Give it to you 
         A
Give it to you

Solo(Play till fade out):
E D C A

And one more thing that I gave to you (8x)

====================================================

verse:
  E       B         A       
e-0-------0-------|-0-------4-------|
B-0-------0-------|-0-------0-------|
G-1-------8-------|-2-------2-------|
D-2-------9-------|-2-------2-------|
A-2-------9-------|-0-------0-------|
D-0-------7-------|-----------------|

Chorus:
  C#m     E                 F#
e-4-------0-------|--------(0)------|
B-5-------0-------|-2-------2-------|
G-6-------1-------|-3-------3-------|
D-6-------2-------|-2-------4-------|
A-4-------2-------|-x-------4-------|
D---------0-------|-2-------2-------|

Bridge:
  B       C#m       C       E
e-0-------0-------|-0-------0-------|
B-0-------0-------|-0-------0-------|
G-8-------9-------|-9-------1-------|
D-9-------11------|-10------2-------|
A-9-------11------|-10------2-------|
D-7-------9-------|-8-------0-------|

Outro:
  E       D         C       A
e-0-------0-------|-0-------0-------|
B-0-------0-------|-0-------0-------|
G-9-------7-------|-5-------2-------|
D-9-------7-------|-5-------2-------|
A-7-------5-------|-3-------0-------|
D-0---------------|-----------------|

====================================================

Enjoy!
Tap to rate this tab
 
# A B C D E F G H I J K L M N O P Q R S T U V W X Y Z