Song name
# A B C D E F G H I J K L M N O P Q R S T U V W X Y Z

Foo Fighters - Make A Bet tab

Foo Fighters - Make A Bet
(Normal Tuning)


Intro
e||-----------------------------------------------------------||
b||--------------------------------------------------0-2-2-0--||
g||--1-1-1---------1-1-1---------1-1-1---------1-1-1-1-2-2-1--||
d||--2-2-2---------2-2-2---------2-2-2---------2-2-2----------||
a||--2-2-2---------2-2-2---------2-2-2---------2-2-2----------||
e||--0-0-0---------0-0-0---------0-0-0---------0-0-0----------||


Verse
e||-----------------------------------------------------------||
b||--------0-2-2-0-------0-2-2-0-------0-2-2-0-------0-2-2-0--||
g||--1-1-1-1-2-2-1-1-1-1-1-2-2-1-1-1-1-1-2-2-1-1-1-1-1-2-2-1--||
d||--2-2-2---------2-2-2---------2-2-2---------2-2-2----------||
a||--2-2-2---------2-2-2---------2-2-2---------2-2-2----------||
e||--0-0-0---------0-0-0---------0-0-0---------0-0-0----------||


Fill in
e||-----------------------------------||
b||-----------------------------------||
g||--7-7-7-7-7-7-7-7-4-4-4-4-4-4-4-4--||
d||--7-7-7-7-7-7-7-7-4-4-4-4-4-4-4-4--||
a||--5-5-5-5-5-5-5-5-2-2-2-2-2-2-2-2--||
e||-----------------------------------||


Chorus (play each chord several times)
e||----------------------------||
b||----------------------------||
g||--1--8--1--6----1--8--7--8--||
d||--2--9--2--7----2--9--7--9--||
a||--2--9--2--7----2--9--5--9--||
e||--0--7--0--5----0--7-----7--||



Bridge
|[guitar 1](each chord several times) [end #1 (4x)][end #2 ]|
|e------------------------------------[----------------------][-------------------]|
|b------------------------------------[----------------------][-------------------]|
|g--7-------6-------9----------8------[7-------6---------1-1-][---6-------4-------]|
|d--7-------7-------9----------9------[7-------7---------2-2-][---7-------5-------]|
|a--5-------7-------7----------9------[5-------7---------2-2-][---7-------5-------]|
|e----------5------------------7------[--------5---------0-0-][---5-------3-------]|
| |
|[guitar2] |
|e--------5------------5------------7------------7------------5------------5-------|
|b----7-----7------5-----5------9-----9------7-----7------7-----7------5-----5-----|
|g--7---7-----7--6---6-----6--9---9-----9--8---8-----8--7---7-----7--6---6-----6---|
|d---------------------------------------------------------------------------------|
|a---------------------------------------------------------------------------------|
|e---------------------------------------------------------------------------------|


Here's the right order:

Intro
Verse
Fill in
Verse(2x)
Fill in
Verse(2x)
Fill in
Chorus
Intro
Verse
Fill in
Verse(2x)
Fill in
Chorus
Bridge #1
Bridge #2
Verse
Verse[muted] (2x)
Chorus (2x)
Tap to rate this tab
# A B C D E F G H I J K L M N O P Q R S T U V W X Y Z