Song name
# A B C D E F G H I J K L M N O P Q R S T U V W X Y Z

Foo Fighters - Bangin tab

Band: Foo Fighters
Song: Bangin'
Tuning: Standard
Tabbed by:Carlos Ramirez

This is the structure of the song:


-intro: (I)(2 times)

-verse: (I)(8 times)

-"I'll keep bangin'on with you.." (I)(2 times),(II)

-intro: (I)(2 times)

-verse: (I)(8 times)

-"I'll keep bangin'on with you.." (I)(2 times),(II)

-(III)

-"bangin'on with you.." (I)(2 times),(II)   (repeat)

-(IV)

-"bangin'on with you.." (I)(2 times),(II)    (repeat)

 (I)
      D5      B5
e|-------------------------------------------------------|
B|-------------------------------------------------------|
G|---7-7-7---4-4-4---------------------------------------|
D|---7-7-7---4-4-4-----------0---------------------------|
A|---5-5-5---2-2-2---4-4---4-0-4-------------------------|
E|-------------------2-2-0-2---2-0-----------------------|

(II)
         D5       B5     A5      B5       D5      B5           F#5
e|-------------------------------------------------------------------------|
B|-------------------------------------------------------------------------|
G|--------7-7-7---4-4-4---2-2-2---4-4-4----7-7-7---4-4---------------------|
D|--------7-7-7---4-4-4---2-2-2---4-4-4----7-7-7---4-4----4-4-4-4-4-4-4-4--|
A|--------5-5-5---2-2-2---0-0-0---2-2-2----5-5-5---2-2----4-4-4-4-4-4-4-4--|
E|-----------------------------------------------------0--2-2-2-2-2-2-2-2--|

(III)
        D5                B5               F#5             A5
e|--------------------------------------------------------------------|
B|--------------------------------------------------------------------|
G|-7-7-7-7-7-7-7-7--4-4-4-4-4-4-4-4-------------------2-2-2-2-2-2-2-4-|
D|-7-7-7-7-7-7-7-7--4-4-4-4-4-4-4-4--4-4-4-4-4-4-4-4--2-2-2-2-2-2-2-4-| 3x
A|-5-5-5-5-5-5-5-5--2-2-2-2-2-2-2-2--4-4-4-4-4-4-4-4--0-0-0-0-0-0-0-2-|
E|-----------------------------------2-2-2-2-2-2-2-2------------------|

       D5               B5
e|-----------------------------------|
B|-----------------------------------|
G|-7-7-7-7-7-7-7-7--4-4-4-4-4-4-4-4--|
D|-7-7-7-7-7-7-7-7--4-4-4-4-4-4-4-4--|
A|-5-5-5-5-5-5-5-5--2-2-2-2-2-2-2-2--|
E|-----------------------------------|


 (IV)

      F#                A                Ab                G
e|--------------------------------------------------------------------|
B|--------------------------------------------------------------------|
G|-3-3-3-3-3-3-3-3--6-6-6-6-6-6-6-6--5-5-5-5-5-5-5-5--4-4-4-4-4-4-4-4-|
D|-4-4-4-4-4-4-4-4--7-7-7-7-7-7-7-7--6-6-6-6-6-6-6-6--5-5-5-5-5-5-5-5-| 2x
A|-4-4-4-4-4-4-4-4--7-7-7-7-7-7-7-7--6-6-6-6-6-6-6-6--5-5-5-5-5-5-5-5-|
E|-2-2-2-2-2-2-2-2--5-5-5-5-5-5-5-5--4-4-4-4-4-4-4-4--3-3-3-3-3-3-3-3-|

         F#               A               B               G
e|--------------------------------------------------------------------|
B|--------------------------------------------------------------------|
G|-3-3-3-3-3-3-3-3--6-6-6-6-6-6-6-6--8-8-8-8-8-8-8-8--4-4-4-4-4-4-4-4-|
D|-4-4-4-4-4-4-4-4--7-7-7-7-7-7-7-7--9-9-9-9-9-9-9-9--5-5-5-5-5-5-5-5-|
A|-4-4-4-4-4-4-4-4--7-7-7-7-7-7-7-7--9-9-9-9-9-9-9-9--5-5-5-5-5-5-5-5-|
E|-2-2-2-2-2-2-2-2--5-5-5-5-5-5-5-5--7-7-7-7-7-7-7-7--3-3-3-3-3-3-3-3-|

         F#               A               B                D
e|------------------------------------------------------------------------|
B|------------------------------------------------------------------------|
G|-3-3-3-3-3-3-3-3--6-6-6-6-6-6-6-6--8-8-8-8-8-8-8-8-11-11-11-11-11-11-11-|
D|-4-4-4-4-4-4-4-4--7-7-7-7-7-7-7-7--9-9-9-9-9-9-9-9-12-12-12-12-12-12-12-|
A|-4-4-4-4-4-4-4-4--7-7-7-7-7-7-7-7--9-9-9-9-9-9-9-9-12-12-12-12-12-12-12-|
E|-2-2-2-2-2-2-2-2--5-5-5-5-5-5-5-5--7-7-7-7-7-7-7-7-10-10-10-10-10-10-10-|
Tap to rate this tab
 
# A B C D E F G H I J K L M N O P Q R S T U V W X Y Z