Guitaretab - guitar tabs
Song name
# A B C D E F G H I J K L M N O P Q R S T U V W X Y Z

Foolproof - Paper Houses tab

Tabbed by:johnny
Email:guitarist_prs@hotmail.com great song took me bout 30 mins to learn

Tuning:EbAbDbGbBbEb

work out the strumming not hard
e|----------------|-------|---------------------------------------------------|
B|----------------|-------|---------------------------------------------------|
G|----------------|-------|---------------------------------------------------|
D|--2----5---5--5-|--5--5-|---------------------------------------------------|
A|--2----5---3--2-|--2--3-|---------------------------------------------------|
E|--2----5--------|-------|---------------------------------------------------|
                   2nd time in destortion

e|---------------------------------------------------------------------------|
B|---------------------------------------------------------------------------|
G|-----------------------------77--------------------------------------------|
D|--5-----------------------------7-7h9--------------------------------------|
A|--5------------------------------------------------------------------------|
E|--5------------------------------------------------------------------------|
 1st guitar  let it ring       2nd guitar

e|---------------------------------------------------------------------------|
B|---------------------------------------------------------------------------|
G|---------------------------------------------------------------------------|
D|---5---------------4-------------------------------------------------------|
A|---5---------------4-------------------------------------------------------|
E|---5---------------4-------------------------------------------------------|
 the next bit u work out the muting and strumming again not to hard to work out
[ Tab from: http://www.guitaretab.com/f/foolproof/50277.html ]
e|----------------------------------------------------------------------------|
B|----------------------------------------------------------------------------|
G|-----0----0----0----0----0----0----0----0-----------------------------------|
D|----5-5--5-5--5-5--5-5--4-4--4-4--5-5--5-5----------------------------------|
A|---2---22---23---33---35---55---50---00---0---------------------------------|
E|----------------------------------------------------------------------------|
clean bit

e|---------------------------------------------------------------------------|
B|---------------------------------------------------------------------------|
G|---------------------------------------------------------------------------|
D|---2--5-5-4----------------------------------------------------------------|
A|---2--3-2-4----------------------------------------------------------------|
E|---2------4----------------------------------------------------------------|
chorus
e|----------------------------------------------------------------------------|
B|---------10-----------------------------------------------------------------|
G|-----1212--11h12------------------------------------------------------------|
D|----------------------------------------------------------------------------|
A|----------------------------------------------------------------------------|
E|----------------------------------------------------------------------------|
next little bit the rest u can work out its repeated alot hope u enjoyed the playing it 
much as i enjoy playing i do


| /  slide up
| \  slide down
| h  hammer-on
| p  pull-off
| ~  vibrato
| +  harmonic
| x  Mute note
===============================================================================
Related for Paper Houses tab