Song name
# A B C D E F G H I J K L M N O P Q R S T U V W X Y Z

Fools Gold - Surprise Hotel tab

e-\12--10--8--5---5---3-------7------8----8--------|
b--------------------------------------------------|
g---------------5---5----4\7----7\9----9-----9-----|
d--------------------------------------------------|
a--------------------------------------------------|
E--------------------------------------------------|

And then comes the piece the other guy tabbed before me, but itīs not the real intro.

It's like this.
e-17-15-13-12----12-------12----12---12---12-------|
b-------------13----13-12----10----8----8----------|
g--------------------------------------------------|
d--------------------------------------------------|
a--------------------------------------------------|
E--------------------------------------------------|

Thank's sphetr2 
Tap to rate this tab
 
# A B C D E F G H I J K L M N O P Q R S T U V W X Y Z