Song name
# A B C D E F G H I J K L M N O P Q R S T U V W X Y Z

Fools Gold - Bark And Bite tab

Such a happy song! Enjoy! jps :-)

e|--15~----19--17--15--14~----14--12--10~--10~/12-10-----------------------|
b|--15~--20--19--17--15-----15--13--12---------------12~--10-12/15-13-12~--|
g|--16~--------------------------------------------------------------------|
D|--17~--------------------------------------------------------------------|
A|-------------------------------------------------------------------------|
E|-------------------------------------------------------------------------|


e|----19--17--15--14~----14--12--10~--10/12-12-12-12-12-10---------------------|
b|--20--19--17--15-----15--13--12------------------------13-12~--10-12-10------|
g|---------------------------------------------------------------9--------12~--|
D|-----------------------------------------------------------------------------|
A|-----------------------------------------------------------------------------|
E|-----------------------------------------------------------------------------|
Tap to rate this tab
 
# A B C D E F G H I J K L M N O P Q R S T U V W X Y Z