Song name
# A B C D E F G H I J K L M N O P Q R S T U V W X Y Z

Foot Ox - Carabell chords

Highlighted       Show chord diagrams
Riff

E|--2---5-2-0---0----5--2--0--0---|
B|--3-----------2-------------0---|
G|--2-----------2-------------1---|
D|--0-----------2-------------2---|
A|--------------0-------------2---|
E|----------------------------0---|

         D      A
Carabell call me
               E
from the front yard
                      D           A
she has climbed up an orange tree
                    E
she needs help down now
       Bm        D        Dbm       E
she is burrowing into the couch cushion
Bm            D         Dbm               E   F#m
kinda like i used to do before i lost my mind

E|--2---5-2-0---0----5--2--0--0---|
B|--3-----------2-------------0---|
G|--2-----------2-------------1---|
D|--0-----------2-------------2---|
A|--------------0-------------2---|
E|----------------------------0---|

       Bm        D        Dbm       E
she is burrowing into the couch cushion
Bm            D         Dbm               E   F#m
kinda like i used to do before i lost my mind
Tap to rate this tab
 
# A B C D E F G H I J K L M N O P Q R S T U V W X Y Z