Song name
# A B C D E F G H I J K L M N O P Q R S T U V W X Y Z

For Against - Sabres tab

----------------------------------------------------------------------------
                             Sabres – For Against
-------------------------------------------------------------------------------
Tabbed by: Eero Mäkelä 
Email: bianchi@luukku.com

Tuning: Standard, Capo on second fret
   [0:01] (Intro)
   [0:46]
e|---------------------------------------------------------------------------|
B|-5--6--5-----5--6----------------------------------------------------------|
G|-7--7--7-----7--7--7-------------------------------------------------------|
D|-------------------7-------------------------------------------------------|
A|---------------------------------------------------------------------------|
E|---------------------------------------------------------------------------|
   [0:13] (Verse)x2
   [0:58]
   [2:00]
e|---------------------------------------------------------------------------|
B|---------------------------------------------------------------------------|
G|-7-----7-----7---9-----10-----9----7------7------7----9-----10-----9-------|
D|---0-----0-----0---0------0-----0----0------0------0----0------0-----0-----|
A|-----5-----5---------5------5----------5------5-----------5------5---------|
E|---------------------------------------------------------------------------|

e|---------------------------------------------------------------------------|
B|---------------------------------------------------------------------------|
G|-7-----7-----7---9-----10-----9---10-----10-----10----9-----9-----9--------|
D|---0-----0-----0---0------0-----0----0------0------0----0-----0-----0------|
A|-----5-----5---------5------5----------5------5-----------5-----5----------|
E|---------------------------------------------------------------------------|
   [0:35] (Chorus)x2
   [1:20]
   [2:24]
e|---------------------------------------------------------------------------|
B|---------------------------------------------------------------------------|
G|-------2----------------0----------------0---0----------0------------------|
D|-----------0---0------------0----------------------------------------------|
A|-5--5--------5----5--5--------5-3--1--1----1---1--3--3----3--3-3-----------|
E|---------------------------------------------------------------------------|
   [1:31] 
e|---------------------------------------------------------------------------|
B|---------------------------------------------------------------------------|
G|-10--10-10--10-10-10-------------------------------------------------------|
D|-10--10-10--10-10-10----8--8-8--8-8-8--------------------------------------|
A|--8---8--8---8--8--8----8--8-8--8-8-8--------------------------------------|
E|------------------------6--6-6--6-6-6--------------------------------------|
   [1:43]
e|---------------------------------------------------------------------------|
B|-6------6------------------------------------------------------------------|
G|-7-------7-------7---9-10-9-7-------------7---9-10-9---------7-9--10-------|
D|----------7---------------------10-9-10-------------------7----------------|
A|-----------5------------------------------------------7-8------------------|
E|---------------------------------------------------------------------------|
   [3:00] (The Ending) 
e|---------------------------------------------------------------------------|
B|---------------------------------------------------------------------------|
G|-------2----------------0-----------------2-----------------0----------2---|
D|-----------0---0------------0---0-------------0---0------------0---0---0---|
A|-5--5--------5----5--5--------5----5--5---------5----5--5--------5-----5---|
E|---------------------------------------------------------------------------|
  Here's a link to For Against's website (www.words-on-music.com/foragainst)
 
  Sorry if the link doesn't work.
Tap to rate this tab
 
# A B C D E F G H I J K L M N O P Q R S T U V W X Y Z