Song name
# A B C D E F G H I J K L M N O P Q R S T U V W X Y Z

For Against - Autocrat tab

This is the full, correct version of Autocrat by For Against



Verse (Play as Barre Chords)

   C      play 2x      G  play 2x        (repeat this sequence 2x)
e--8--8--8-----------|--10-10-10----------------------------------------|
B--8--8--8-----------|--12-12-12----------------------------------------|
G--9--9--9-----------|--12-12-12----------------------------------------|
D--10-10-10----------|--12-12-12----------------------------------------|
A--10-10-10----------|--10-10-10----------------------------------------|
E--8--8--8-----------|--X--X--X-----------------------------------------|



Chorus    (play 8x)
e-------------------------------------------------------------------|
B-------------------------------------------------------------------|
G--------------5-----5-----5----------------------------------------|
D-----------7-----7-----7-------------------------------------------|
A--------0----------------------------------------------------------|
E-------------------------------------------------------------------|

Play this during verse after second chorus (after playing 2x, play normal verse)
e-----------------------------------------------------------------------|
B-----------------------------------------------------------------------|
G-----------------------------------------------------------------------|
D-----------------------------------------------------------------------|
A-----------------------------------------------------------------------|
E---X-X-X-X-X-X---------------------------------------------------------|

Play 3x
e--------------------X--X--X------------------------------------------------|
B--------------------X--X--X------------------------------------------------|
G--------------------X--X--X------------------------------------------------|
D--------------------9--9--9------------------------------------------------|
A--------------------9--9--9------------------------------------------------|
E-----X-X-X-X-X-X----X--X--X------------------------------------------------|

Play until final chord
e-----8----------------------------------------------------------------|
B-----8----------------------------------------------------------------|
G-----9----------------------------------------------------------------|
D-----10---------------------------------------------------------------|
A-----10---------------------------------------------------------------|
E-----8----------------------------------------------------------------|

Final Chord
e----7----------------------------------------------------------------|
B----9----------------------------------------------------------------|
G----9----------------------------------------------------------------|
D----9----------------------------------------------------------------|
A----7----------------------------------------------------------------|
E----X----------------------------------------------------------------|
Tap to rate this tab
# A B C D E F G H I J K L M N O P Q R S T U V W X Y Z