Song name
# A B C D E F G H I J K L M N O P Q R S T U V W X Y Z

For All Those Sleeping - One Kiss tab

One Kiss-For All Those Sleeping
Please rate x]
not sure if this right learn it by ear
Piano (intro)
|----------------------------------------------------------|
|----------------------------------------------------------|
|----------------------------------------------------------|
|----------------------------------------------------------|
|----------------------------------------------------------|
|----------------------------------------------------------|

11’s not 1’s
|----------------------------------------------------------|
|----------------------------------------------------------|
|----------------------------------------------------------|
|--888888888888----1111111111---6666666--------------------|
|--888888888888----1111111111---6666666--------------------|
|--888888888888----1111111111---6666666--------------------|

|----------------------------------------------------------|
|----------------------------------------------------------|
|----------------------------------------------------------|
|--888888888888----11-11--11--11--11---6-6--6--6--6---5~~~-|
|--888888888888----11-11--11--11--11---6-6--6--6--6---5~~~-|
|--888888888888----11-11--11--11--11---6-6--6--6--6---5~~~-|

Verse

|----------------------------------------------------------|
|----------------------------------------------------------|
|----------------------------------------------------------|
|----------------------------------------------------------|
|--7-7-7-7-7-7-7-7-7--3-3-3-3-3-3-3-3-3-3------------------|
|--7-7-7-7-7-7-7-7-7--3-3-3-3-3-3-3-3-3-3------------------|
   . .   . .   . .    . . . . . . . . . .  

|----------------------------------------------------------|
|----------------------------------------------------------|
|----------------------------------------------------------|
|----------------------------------------------------------|
|--7-7-7-7-7-7-7-7-7--3-3-3-3-3-3-3-3-3-3--5-5-5-5-5-5-5-5-|
|--7-7-7-7-7-7-7-7-7--3-3-3-3-3-3-3-3-3-3--5-5-5-5-5-5-5-5-|
   . . . . . . . . .  . . . . . . . . . .  . . . . . . . .

|----------------------------------------------------------|
|----------------------------------------------------------|
|----------------------------------------------------------|
|----------------------------------------------------------|
|--7-7-7-7-7-7-7-7-7--3-3-3-3-3-3-3-3-3-3--5-5-5-5-5-5-5-5-|
|--7-7-7-7-7-7-7-7-7--3-3-3-3-3-3-3-3-3-3--5-5-5-5-5-5-5-5-|
   . . . . . . . . .  . . . . . . . . . .  . . . . . . . .

|----------------------------------------------------------|
|----------------------------------------------------------|
|----------------------------------------------------------|
|----------------------------------------------------------|
|--7-7-7-7-7-7-7-7-7--3-3-3-3-3-3-3-3-3-3--5-5-5-5-5-5-5-5-|
|--7-7-7-7-7-7-7-7-7--3-3-3-3-3-3-3-3-3-3--5-5-5-5-5-5-5-5-|
   . . . . . . . . .  . . . . . . . . . .  . . . . . . . .

Chorus
|----------------------------------------------------------|
|----------------------------------------------------------|
|----------------------------------------------------------|
|----------------------------------------------------------|
|----------------------------------------------------------|
|----------------------------------------------------------|

|----------------------------------------------------------|
|----------------------------------------------------------|
|----------------------------------------------------------|
|--888888888888----1111111111---6666666--------------------|
|--888888888888----1111111111---6666666--------------------|
|--888888888888----1111111111---6666666--------------------|

|----------------------------------------------------------|
|----------------------------------------------------------|
|----------------------------------------------------------|
|--888888888888----1111111111---6666666--------------------|
|--888888888888----1111111111---6666666--------------------|
|--888888888888----1111111111---6666666--------------------|

|----------------------------------------------------------|
|----------------------------------------------------------|
|----------------------------------------------------------|
|--888888888888----1111111111---6666666--------------------|
|--888888888888----1111111111---6666666--------------------|
|--888888888888----1111111111---6666666--------------------|

|----------------------------------------------|
|----------------------------------------------|
|----------------------------------------------|
|------11-11--11--11--11---6-6--6--6--6---5~~~-|
|------11-11--11--11--11---6-6--6--6--6---5~~~-|
|------11-11--11--11--11---6-6--6--6--6---5~~~-|

Verse 2
|----------------------------------------------------------|
|----------------------------------------------------------|
|----------------------------------------------------------|
|----------------------------------------------------------|
|--7-7-7-7-7-7-7-7-7--3-3-3-3-3-3-3-3-3-3------------------|
|--7-7-7-7-7-7-7-7-7--3-3-3-3-3-3-3-3-3-3------------------|
   . .   . .   . .    . .   . .   . .   .  

|----------------------------------------------------------|
|----------------------------------------------------------|
|----------------------------------------------------------|
|----------------------------------------------------------|
|--7-7-7-7-7-7-7-7-7--3-3-3-3-3-3-3-3-3-3--5-5-5-5-5-5-5-5-|
|--7-7-7-7-7-7-7-7-7--3-3-3-3-3-3-3-3-3-3--5-5-5-5-5-5-5-5-|
   . . . . . . . . .  . .   . .   . .   .  . .   . .   . . 

|----------------------------------------------------------|
|----------------------------------------------------------|
|----------------------------------------------------------|
|----------------------------------------------------------|
|--7-7-7-7-7-7-7-7-7--3-3-3-3-3-3-3-3-3-3--5-5-5-5-5-5-5-5-|
|--7-7-7-7-7-7-7-7-7--3-3-3-3-3-3-3-3-3-3--5-5-5-5-5-5-5-5-|
   . . . . . . . . .  . .   . .   . .   .  . .   . .   . .

|----------------------------------------------------------|
|----------------------------------------------------------|
|----------------------------------------------------------|
|----------------------------------------------------------|
|--7-7-7-7-7-7-7-7-7--3-3-3-3-3-3-3-3-3-3--5-5-5-5-5-5-5-5-|
|--7-7-7-7-7-7-7-7-7--3-3-3-3-3-3-3-3-3-3--5-5-5-5-5-5-5-5-|
   . . . . . . . . .  . .   . .   . .   .  . .   . .   . .

Chorus
|----------------------------------------------------------|
|----------------------------------------------------------|
|----------------------------------------------------------|
|----------------------------------------------------------|
|----------------------------------------------------------|
|----------------------------------------------------------|

|----------------------------------------------------------|
|----------------------------------------------------------|
|----------------------------------------------------------|
|--888888888888----1111111111---6666666--------------------|
|--888888888888----1111111111---6666666--------------------|
|--888888888888----1111111111---6666666--------------------|

|----------------------------------------------------------|
|----------------------------------------------------------|
|----------------------------------------------------------|
|--888888888888----1111111111---6666666--------------------|
|--888888888888----1111111111---6666666--------------------|
|--888888888888----1111111111---6666666--------------------|

|----------------------------------------------------------|
|----------------------------------------------------------|
|----------------------------------------------------------|
|--888888888888----1111111111---6666666--------------------|
|--888888888888----1111111111---6666666--------------------|
|--888888888888----1111111111---6666666--------------------|

|----------------------------------------------|
|----------------------------------------------|
|----------------------------------------------|
|------11-11--11--11--11---6-6--6--6--66666----|
|------11-11--11--11--11---6-6--6--6--66666----|
|------11-11--11--11--11---6-6--6--6--66666----|

The Lady Laughing
|---------------------------|
|---------------------------|
|---------------------------|
|---------------------------|
|---------------------------|
|---------------------------|

Breakdown
|------------------------------------------|
|------------------------------------------|
|------------------------------------------|
|---77777--99999-ttttt--1212121212---------|x4
|---77777--99999-ttttt--1212121212---------|
|---77777--99999—ttttt--1212121212---------|

Piano
|----------------------------------------------------------|
|----------------------------------------------------------|
|----------------------------------------------------------|
|----------------------------------------------------------|
|----------------------------------------------------------|
|----------------------------------------------------------|

Intro to chorus
|-----------------------------------------|
|-----------------------------------------|
|-----------------------------------------|
|--55555555555555-------------------------|
|--55555555555555-------------------------|
|--55555555555555-------------------------|
   ..............

Chorus 
|----------------------------------------------------------|
|----------------------------------------------------------|
|----------------------------------------------------------|
|--888888888888----1111111111---6666666--------------------|
|--888888888888----1111111111---6666666--------------------|
|--888888888888----1111111111---6666666--------------------|

|----------------------------------------------------------|
|----------------------------------------------------------|
|----------------------------------------------------------|
|--888888888888----1111111111---6666666--------------------|
|--888888888888----1111111111---6666666--------------------|
|--888888888888----1111111111---6666666--------------------|

|----------------------------------------------------------|
|----------------------------------------------------------|
|----------------------------------------------------------|
|--888888888888----1111111111---6666666--------------------|
|--888888888888----1111111111---6666666--------------------|
|--888888888888----1111111111---6666666--------------------|


|----------------------------------------------|
|----------------------------------------------|
|----------------------------------------------|
|------11-11--11--11--11---6-6--6--6--66666----|
|------11-11--11--11--11---6-6--6--6--66666----|
|------11-11--11--11--11---6-6--6--6--66666----|

|------------------------------------------------|
|------------------------------------------------|
|------------------------------------------------|
|------11-11--11--11--11---6-6--6--6--66666------|
|------11-11--11--11--11---6-6--6--6--66666------|
|------11-11--11--11--11---6-6--6--6--66666------|

End
Fade Out
|--------------------------------------------|
|--------------------------------------------|
|--------------------------------------------|
|--7-----------------------------------------|
|--7~~~~~~~~~~--3~~~~~~~~~~--5~~~~~~~~~~-----|
|--7~~~~~~~~~~--3~~~~~~~~~~--5~~~~~~~~~~-----|
Tap to rate this tab
 
# A B C D E F G H I J K L M N O P Q R S T U V W X Y Z