Song name
# A B C D E F G H I J K L M N O P Q R S T U V W X Y Z

For Felix - A Simple Message tab

E|-------------------------------------------------------------------------|
B|-------------------------------------------------------------------------|
G|-11\14--14--14\12--12--11--9\11--11---7\9---9--9\11-11--12-12-12--11-----|
D|--X\-X---X---X\-X---X--X---X\X---X----X\X---X--X\X---X--X--X--X---X------|
A|--9\12--12--12\10--10--9---7\9---9----5\7---7--7\9---9--10-10-10--9------|
E|-------------------------------------------------------------------------|

E|-------------------------------------------------------------------------|
B|-------------------------------------------------------------------------|
G|--7-7-7---7-7-7---7\9---7-7-7-7--X-X-X-X--7-7-7-7--X-X-X-X---------------|
D|--X-X-X---X-X-X---X\X---X-X-X-X--7-7-7-7--X-X-X-X--7-7-7-7---------------|
A|--5-5-5---5-5-5---5\7---5-5-5-5--5-5-5-5--5-5-5-5--5-5-5-5---------------|
E|-------------------------------------------------------------------------|

http://WWW.ForFelixRock.com/
Tap to rate this tab
# A B C D E F G H I J K L M N O P Q R S T U V W X Y Z