Song name
# A B C D E F G H I J K L M N O P Q R S T U V W X Y Z

For My Pain - Autumn Harmony tab

-------------------------------------------------------------------------------
			     Autumn Harmony - For My Pain...
-------------------------------------------------------------------------------
Tabbed by: logspran


Tuning: Half Step Down (But you can play in Regular)

e|---------------------------------------------------------------------------|
B|---------5------4-----------2-----0----------------------------------------|
G|------------------6------------------2---1--------1------1--2--1-----------|
D|-----6-------6-------6----2----2-------------------------------------------|
A|---4-------------------0-----------------------------2---------------------|
E|-----------------------------------------------0-------------------2/4-----|

e|---------------------------------------------------------------------------|
B|-------------------4-------------------------------------------------------|
G|-------5-----5--6----5-----------------------------------------------------|
D|---------------------------------------------------------------------------|
A|----6-----6----------------------------------------------------------------|
E|--4------------------------------------------------------------------------|
  Tip: Play the riff as if you are playing a chord. 'Most' of the riff is formed from a 
chord (C# if you are not tunned down a half step).

   That's It. Short and Simple and It's and nice riff that sounds cool. Note for Note. 
tab the rest the song when I feel like tabbing and not playing my PS3.

| /  slide up
| \  slide down
| h  hammer-on
| p  pull-off
| ~  vibrato
| +  harmonic
| x  Mute note
Tap to rate this tab
# A B C D E F G H I J K L M N O P Q R S T U V W X Y Z