Song name
# A B C D E F G H I J K L M N O P Q R S T U V W X Y Z

For Our Hero - White Lighter tab

-------------------------------------------------------------------------------
			     White Lighter - For Our Hero
			     www.myspace.com/forourhero
-------------------------------------------------------------------------------
Tabbed by:Dave Tran
Email:daveman_01@hotmail.com

Tuning:Drop D

Verse Chords
e|--0--|--0--|--0---|
B|--0--|--0--|--2---|
G|--6--|--4--|--2---|
D|--7--|--6--|--0---|
A|--0--|--0--|--0---|
D|-----|-----|--0---|

Verse lead riff
e|--7-----7-------5-----5-------7-----7-------7-----7--------------------|
B|----0-----0-------0-----0-------0-----0-------0-----0------------------|
G|-----------------------------------------------------------------------|
D|--7---7-----7---7---7-----7---7---7-----7---0---0-----0----------------|
A|-----------------------------------------------------------------------|
D|-----------------------------------------------------------------------|

Verse Bass Line
e|-----------------------------------------------------------------------|
B|-----------------------------------------------------------------------|
G|-----------------------------------------------------------------------|
D|---2--6-7----7-6-----6-------------------------------------------------|
A|-0---------0-------0---0----2---4--------------------------------------|
D|--------------------------0---0----------------------------------------|

Prechorus lead riff
e|-----------------------------------------------------------------------|
B|-------------------------17/19-17-15-------17----------------17-15-14--|
G|--16benddown-14----14----------------16/18----18\16-14-------14-14-14--|
D|----------------16----16---------------------------------16--16-16-16--|
A|-0---------0-------0---0----2---4--------------------------------------|
D|--------------------------0---0----------------------------------------|


Chorus Chords
e|-0-|-0-|-0-|-0-0--|
B|-0-|-0-|-3-|-0-0--|
G|-1-|-2-|-2-|-2-1--|
D|-2-|-4-|-0-|-2-2--|
A|-2-|-4-|-0-|-0-2--|
D|-2-|-4-|-0-|---2--|

Chorus lead riff
e|---4-5----4-7----4--------------------------------------------|
B|-5------5------5---5------5---5-------------------------------|
G|----------------------4h6---4---------------------------------|
D|--------------------------------------------------------------|
A|--------------------------------------------------------------|
D|--------------------------------------------------------------|

Outro Chords
e|-0-|-0-|-0-----|
B|-0-|-0-|-3-----|
G|-2-|-1-|-2-----|
D|-4-|-2-|-0-----|
A|-4-|-2-|-0-----|
D|-4-|-2-|-0-----|




| /  slide up
| \  slide down
| h  hammer-on
| p  pull-off
| ~  vibrato
| +  harmonic
| x  Mute note
===============================================================================
Tap to rate this tab
 
# A B C D E F G H I J K L M N O P Q R S T U V W X Y Z