Song name
# A B C D E F G H I J K L M N O P Q R S T U V W X Y Z

For Our Hero - 5 Wonders Of The World tab

For Our Hero - .5 Wonders Of The World 
www.myspace.com/forourhero

Tabbed By - Dave Tran

Tuning - Standard

Intro/outro Riff
E||------------------------------------------------------|
B||----------------------0----0--0----------3------------|
G||-------0--2p0----2/4--------------4\2--2------2---2/4-|
D||--2/5-------------------------------------------------|
A||------------------------------------------------------|
E||------------------------------------------------------|


Main Strumming Rythym Verse/Chorus
E||--0------0--------------|-----------------------|----------------------|----0--------0----|
B||--3------3------3----3--|-----0-----------------|-------3--------------|----3--------3----|
G||--0------0------0----0--|-----0-----------------|-------2--------------|----0--------0----|
D||--0h2----0------2----2--|-----2----2------------|-------0--------------|----0--------0----|
A||--3------3------3----2--|-----2----0h--2--0-----|-------0-----------2--|----2--------2----|
E||---------------------0--|-----0--------------3--|--2----2------2----3--|----3--------3----|

Verse Riff
E||-5---5---3---3-------5---5---7---7------|
B||---5---5---5---5---5---5---5---8---8----|
G||----------------------------------------|
D||----------------------------------------|
A||----------------------------------------|
E||----------------------------------------|

Prechorus
E||--0--|--0--|--0--|--0--|
B||--1--|--0--|--1--|--3--|
G||--2--|--0--|--0--|--2--|
D||--2--|--2--|--2--|--0--|
A||--0--|--2--|--3--|-----|
E||-----|--0--|-----|-----|

Bridge Chords
E||--0--|--0--|
B||--3--|--0--|
G||--0--|--0--|
D||--2--|--2--|
A||--3--|--2--|
E||-----|--0--|X4


E||--0--|--0--|
B||--1--|--1--|
G||--2--|--0--|
D||--2--|--2--|
A||--0--|--3--|
E||-----|-----|X3 

E||--0--|
B||--3--|
G||--2--|
D||--0--|
A||-----|
E||-----|
Tap to rate this tab
# A B C D E F G H I J K L M N O P Q R S T U V W X Y Z