Song name
# A B C D E F G H I J K L M N O P Q R S T U V W X Y Z

For Our Hero - Heres Looking At You Kid tab

-----------------------------------------------------------------
Here's Looking @Youkid - For Our Hero
www.myspace.com/forourhero
-----------------------------------------------------------------
Tabbed by:Dave Tran
Email:daveman_01@hotmail.com

Tuning:standard

Verse actual way we play it
e|----3--0--0---------------0------------------------------------|
B|----3--3----3-------3--3----3----------------------------------|
G|-0--0--2------2-----0--2------2--------------------------------|
D|-2-----0---------------2---------------------------------------|
A|-2---------------------0---------------------------------------|
E|-0---------------3---------------------------------------------|

simple chords verse               Prechorus simple
e|-3----0----3----0-------------|--3----0----3----0----0---0------
B|-3----3----3----3-------------|--3----3----3----3----3---3------
G|-0----2----0----2-------------|--0----2----0----2----0---2------
D|-2----0----0----2-------------|--2----0----0----2----2---2------
A|-2---------2----0-------------|--2---------2----0----3---0------
E|-0---------3------------------|--0---------3--------------------

Pre-Chorus actually how we play it
e|----3--0--2---------------0------------0-----------------------|
B|----3--3----3-------3--3----3----3-3---3-----------------------|
G|-0--0--2------2-----0--2------2--0-0---2-----------------------|
D|-2-----0---------------2---------2-2---2-----------------------|
A|-2---------------------0---------3-3---0-----------------------|
E|-0---------------3---------------------------------------------|

Pre-Chorus Riff
e|--10-10-8-8-7-7-------8-8-7-7---------------10------------10/12-10---|
B|----------------10-10---------10-10-8-8-7h8----8-----8h10------------|
G|---------------------------------------------------------------------|
D|---------------------------------------------------------------------|
A|---------------------------------------------------------------------|
E|---------------------------------------------------------------------|


Chorus
e|-------0------0------------3-3-3-3----------------|-0-|
B|-2-----0------3------2-----3-3-3-3----------------|-1-|
G|-0-----0------2------0-----0-2-0-0----------------|-0-|
D|-2-----2------0------2-----2-0-0-0----------------|-2-|
A|-3-X8--2--X4-----X4--3-X8--2-0-2-2-----Repeat-----|-3-|
E|-------0-------------------0-2-3------------------|---|


Verse 2 same as verse 1


Verse 2 Lead Riff
e|----10-7----10-7-----------------10-7----10/12-10--------------|
B|--8-------8-------8-10-10/12---8-------8----------12-10--------|
G|---------------------------------------------------------------|
D|---------------------------------------------------------------|
A|---------------------------------------------------------------|
E|---------------------------------------------------------------|

prechorus 2 same as prechorus 1

Chorus

simplified Bridge 
e|--0----0----0-----0-------------------------------------------|
B|--3----3----0-----0-------------------------------------------|
G|--0----2----0-----0-------------------------------------------|
D|--2----0----2-----2-------------------------------------------|
A|--3---------2-----2-------------------------------------------|
E|------------0-----0-------------------------------------------|


Bridge guitar riff
e|------10-7-------10-7----------10-7-----10/12-10----10---------|
B|--8-8--------8-8------10---8-8--------8----------12----8-------|
G|---------------------------------------------------------------|
D|---------------------------------------------------------------|
A|---------------------------------------------------------------|
E|---------------------------------------------------------------|

outro same chords as bridge


| /  slide up
| \  slide down
| h  hammer-on
| p  pull-off
| ~  vibrato
| +  harmonic
| x  Mute note
Tap to rate this tab
# A B C D E F G H I J K L M N O P Q R S T U V W X Y Z