Song name
# A B C D E F G H I J K L M N O P Q R S T U V W X Y Z

For Our Hero - Curtain Calls On Walkabouts tab

-------------------------------------------------------------------------------
			     FOH Curtain Calls
 www.myspace.com/forourhero
-------------------------------------------------------------------------------
Tabbed by: Dave Tran
Email:daveman_01@hotmail.com

Tuning:Standard

Strumming Pattern
D = Downstroke
U = Upstroke

Intro/Verse
   D   D   U  U D   U D U   D   D   U  U D   U D U
e|-0---0---0--0-0---0-0-0---0---0---0--0-0---0-0-0---------------------------|
B|-3---3---3--3-3---3-3-3---3---3---3--3-3---3-3-3---------------------------|
G|-0---0---0--0-0---0-0-0---0---0---0--0-0---0-0-0---------------------------|
D|-2---2---2--2-2---2-2-2---2---2---2--2-2---2-2-2---------------------------|
A|-3---3---3--3-3---3-3-3---2---2---2--2-2---2-2-2---------------------------|
E|--------------------------0---0---0--0-0---0-0-0---------------------------| X6


Pre Chorus (try working the strumming pattern out yourself it would take me
me way too long to tab it out, chords are)
e|-0-----0-----0-----------|-0-----0-----0--|-0-----0-----0---------0--------|
B|-3-----3-----0-----------|-3-----3-----0--|-3-----3-----0---------3--------|
G|-0-----2-----0-----------|-0-----2-----0--|-0-----2-----0---------2--------|
D|-2-----0-----2-----------|-2-----0-----2--|-2-----0-----2---------0--------|
A|-3-----------2-----------|-3-----------2--|-3-----------2------------------|
E|-------------0-----------|-------------0--|-------------0------------------|


Chorus Same as intro/Verse X4


End of Chorus
e|-0--|--------------------------------------------------------------------------|
B|-3--|--------------------------------------------------------------------------|
G|-2--|--------------------------------------------------------------------------|
D|-0--|--------------------------------------------------------------------------|
A|----|--------------------------------------------------------------------------|
E|----|--------------------------------------------------------------------------|

Intro/Verse Chords x 6

Solo
e|--------------------------------------------------------------12------------------|
B|------------------------------------------------------------12---b15-15p12-15-----|
G|---12-14-14/16-----12-14-14/16-14-12------12-14-14/16----b12----------------------|
D|/14-------------/14--------------------/14----------------------------------------|
A|----------------------------------------------------------------------------------|
E|----------------------------------------------------------------------------------|

e|--------------------------------------------------------------------------------|
B|--------------------------------------------------------------------------------|
G|---12-14-14/16-----12-14-14/16-14-12------12-14-14/16----b11--11----------------|
D|/14-------------/14--------------------/14------------------12--12-12/14--------|
A|--------------------------------------------------------------------------------|
E|--------------------------------------------------------------------------------|


PreChorus 2
e|-0-----0-----0-----------|-0-----0-----0--|
B|-3-----3-----0-----------|-3-----3-----0--|
G|-0-----2-----0-----------|-0-----2-----0--|
D|-2-----0-----2-----------|-2-----0-----2--|
A|-3-----------2-----------|-3-----------2--|
E|-------------0-----------|-------------0--|

chorus same as intro verse x 4

end of chorus
e|-0--|-----------------------------------------------------------------------|
B|-3--|-----------------------------------------------------------------------|
G|-2--|-----------------------------------------------------------------------|
D|-0--|-----------------------------------------------------------------------|
A|----|-----------------------------------------------------------------------|
E|----|-----------------------------------------------------------------------|

Bridge same as intro/verse
repeat same chords till end

:)
Tap to rate this tab
 
# A B C D E F G H I J K L M N O P Q R S T U V W X Y Z