Song name
# A B C D E F G H I J K L M N O P Q R S T U V W X Y Z

For Our Hero - Tellem Theyre Dreaming tab

-------------------------------------------------------------------------------
			     Tell'em They're Dreaming - For Our Hero
-------------------------------------------------------------------------------

Tabbed by: Dave Tran
Email: daveman_01@hotmail.com
Tuning: Standard


Intro/Chorus Riff
e|---------------------------------|-----------------------------------------|
B|---------------------------------|-----------------------------------------|
G|------------------5---x----------|------------------5----------------------|
D|-7---x--2-3---x---5---x--5-5-5---|-7---x--2-3---x---5---x---5--------------|
A|-7---x--2-3---x---3---x--3-2-5---|-7---x--2-3---x---3---x---3-5-5-5-5-5-5--|
E|-5---x--0-1---x--------------3---|-5---x--0-1---x-------x-----3-3-3-3-3-3--| X2


Guitar 2 Intro Riff
e|---------------------------------------------------------------------------|
B|---8-8-8----8-8-8---8-8-8-8-8-8-6-6-6-5-5-5--------------------------------|
G|---------------------------------------------------------------------------|
D|---5-5-5----5-5-5---5-5-5-5-5-5-3-3-3-2-2-2--------------------------------|
A|---------------------------------------------------------------------------|
E|---------------------------------------------------------------------------|


Verse 
e|---------------------------------------------------------------------------|
B|---------------------------------------------------------------------------|
G|---------------------------------------------------------------------------|
D|---------------------------------------------------------------------------|
A|---------------7-7-7-5-5-5-------3-3-3-2-2-2-------------------------------|
E|---5-5-5-8-8-8-------------1-1-1-------------3-3-3-------------------------|
X2 Palm Muted
X2 Normal

Pre Chorus
e|---------------------------------------------------------------------------|
B|---------------------------------------------------------------------------|
G|---------------------------------------------------------------------------|
D|-3---x--2-3-3--3--3---5--5--2---x--2-2-2--2--2---5-------------------------|
A|-3---x--2-3-3--3--3---3--2--0---x--0-0-0--0--0---3--5----------------------|
E|-1---x--0-1-1--1--1-------------x-------------------3----------------------|

e|---------------------------------------------------------------------------|
B|---------------------------------------------------------------------------|
G|---------------------------------------------------------------------------|
D|-3---x--2-3-3--3--3---5--5--2---x--2-2-2--2--2---5-5-5-5-5-5---------------|
A|-3---x--2-3-3--3--3---3--2--0---x--0-0-0--0--0---3-3-3-3-3-3---------------|
E|-1---x--0-1-1--1--1-------------x------------------------------------------|



Chorus Riff x3

Chorus Guitar 2 Riff
e|---------------------------------------------------------------------------|
B|---8-8-8----8-8-8---8-8-8-8-8-8-5-5-5-6-6-6--------------------------------|
G|---------------------------------------------------------------------------|
D|---5-5-5----5-5-5---5-5-5-5-5-5-2-2-2-3-3-3--------------------------------|
A|---------------------------------------------------------------------------|
E|---------------------------------------------------------------------------|

e|---------------------------------------------------------------------------|
B|---8-8-8----8-8-8---8-8-8-8-8-8-6-6-6-5-5-5--------------------------------|
G|---------------------------------------------------------------------------|
D|---5-5-5----5-5-5---5-5-5-5-5-5-3-3-3-2-2-2--------------------------------|
A|---------------------------------------------------------------------------|
E|---------------------------------------------------------------------------|

Post Chorus Solo
e|---------------------------------------------------------------------------|
B|---5-5------------------5-5-------------13-15-b15--------------------------|
G|--b7-7-5-----5--5--5---b7-7-5------12-14-----------------------------------|
D|-----------/7--7--7-------------/14----------------------------------------|
A|---------------------------------------------------------------------------|
E|---------------------------------------------------------------------------|

Verse 2
e|---------------------------------------------------------------------------|
B|---------------------------------------------------------------------------|
G|---------------------------------------------------------------------------|
D|---------------------------------------------------------------------------|
A|---------------7-7-7-5-5-5-------3-3-3-2-2-2-------------------------------|
E|---5-5-5-8-8-8-------------1-1-1-------------3-3-3-------------------------|


Pre Chorus
e|---------------------------------------------------------------------------|
B|---------------------------------------------------------------------------|
G|---------------------------------------------------------------------------|
D|-3---x--2-3-3--3--3---5--5--2---x--2-2-2--2--2---5-------------------------|
A|-3---x--2-3-3--3--3---3--2--0---x--0-0-0--0--0---3--5----------------------|
E|-1---x--0-1-1--1--1-------------x-------------------3----------------------|

e|---------------------------------------------------------------------------|
B|---------------------------------------------------------------------------|
G|---------------------------------------------------------------------------|
D|-3---x--2-3-3--3--3---5--5--2---x--2-2-2--2-2--2--5--xxxxxx----------------|
A|-3---x--2-3-3--3--3---3--2--0---x--0-0-0--0-0--0--3--xxxxxx----------------|
E|-1---x--0-1-1--1--1-------------x--------------------xxxxxx--1-1-1---------|

Chorus x 2

Post Chorus
e|---------------------------------------------------------------------------|
B|---------------------------------------------------------------------------|
G|---------------------------------------------------------------------------|
D|-7-------5-5-5-5-5-5-3--------2-3-----5------------------------------------|
A|-7-------3-3-3-3-3-3-3--------2-3-----5------------------------------------|
E|-5-------------------1--------0-1-----3------------------------------------|
X2

Bridge
e|---------------------------------------------------------------------------|
B|---------------------------------------------------------------------------|
G|---------------------------------------------------------------------------|
D|-----------------5--5--5-7-9-7-5-------------------------------------------|
A|-7--7--7-5--5--5-3--3--3-5-7-5-3-------------------------------------------|
E|-5--5--5-3--3--3-----------------------------------------------------------|
X4

Mass Solo - Chorus Riff x 2
	    Pre- Chorus Riff


Last Chorus X4

Outro
e|---------------------------------------|
B|---------------------------------------|
G|---------------------------------------|
D|-7--7--7--7--7-------------------------|
A|-7--7--7--7--7---+5+5+5+5+5+5----------|
E|-5--5--5--5--5-------------------------|X2



| /  slide up
| \  slide down
| h  hammer-on
| p  pull-off
| ~  vibrato
| +  harmonic
| x  Mute note
===============================================================================
Tap to rate this tab
 
# A B C D E F G H I J K L M N O P Q R S T U V W X Y Z