For Our Hero - Mister Prozac tab

Mister Prozac by Forourhero
Tabbed By Shane Clark

This is my first tab, rate and tell me what ya think :)

INTRO

E|-------------------------------------------------------------|
B|-------------------------------------------------------------|
G|------2---2/5---5--------5----------------5------------------|
D|-----------------------3--------3-----2--2----2--------------| 2x
A|-------------------------------------------------------------|
D|-------------------------------------------------------------|

INTRO 2

E|-------------------------------------------------------------|
B|-------------------------------------------------------------|
G|-----2--2----2--5----5---------------------------------------|
D|-----2--2----2--5----5--3---3---3---2---2--------------------| 4x
A|-----0--0----0--3----3--3---3---3---2---2--------------------|
D|------------------------3---3---3---2---2--------------------|

VERSE 1

E|-----------------------------------------------------|
B|-----------------------------------------------------|
G|--2--2---------2--2--5--5-5--2--2--------------------|
D|--2--2---------2--2--5--5-5--2--2--------------------|
A|--0--0---------0--0--3--3-3--0--0--------------------|
D|-----------------------------------------------------|

E|-----------------------------------------------------|
B|-----------------------------------------------------|
G|----2--2--5--5-5--2--2-------------------------------|
D|----2--2--5--5-5--2--2-------------------------------| 3x
A|----0--0--3--3-3--0--0-------------------------------|
D|-----------------------------------------------------|

PRE CHORUS

E|-------------------------------------------|
B|--------------------------------17~--------|
G|-------------------------------------------|
D|----3--3--3-3-3-3-2------------------------|
A|----3--3--3-3-3-3-2------------------------|
D|----3--3--3-3-3-3-2------------------------|

CHORUS

E|-----------------------------------------------|
B|-----------------------------------------------|
G|-----2-------------------5---------------------| Play each chord 8 times
D|-----2---------3---------5---------2-----------| in a bar (1+2+3+4+)
A|-----0---------3---------3---------2-----------|
D|---------------3-------------------2-----------|

When I play it I sometimes play this in the last bar to make it sound nice
E|--------------------------------------------------|
B|--------------------------------------------------|
G|--------------------------------------------------|
D|---2---2---2---2---3---3---2---2------------------|
A|---2---2---2---2---3---3---2---2------------------|
D|---2---2---2---2---3---3---2---2------------------|

AFTER THE CHORUS

E|--------------------------------------------------|
B|--------------------------------------------------|
G|--------------------------------------------------|
D|---3--3--3-5--7-----------------------------------| 2x
A|---3--3--3-5--7-----------------------------------|
D|---3--3--3-5--7-----------------------------------|

VERSE 2

E|---------------------------------------------------|
B|---------------------------------------------------|
G|-----2---------------------------------------------|
D|-----2---------------------------------------------|2x
A|-----0---------h3-----------/5---------------------|
D|---------------------------------------------------|


E|------------------------------------|
B|------------------------------------|   Palm mute these chords, the first
G|-----2---------5----------7---------|   chord goes for 2 bars and
D|-----2---------5----------7---------|2x others go for 1
A|-----0---------3----------5---------|
D|------------------------------------|

PRE CHORUS

CHORUS

INTRO 4X

SOLO LEAD

E|--------------------------------------------------------------------------|
B|15-15-15---15-15-1515--17-17-17-1717--13-13-13-13-15-13--12-12-12-1212----|
G|--------------------------------------------------------------------------|
D|--------------------------------------------------------------------------|2x
A|--------------------------------------------------------------------------|
D|--------------------------------------------------------------------------|

E|---------------------------------------------------------------------------|
B|---15--15--15-15-15-15-17--17--17-17-17-17--13-13-12-12-10-10-8-8-10-------|2x
G|---------------------------------------------------------------------------|
D|---------------------------------------------------------------------------|
A|---------------------------------------------------------------------------|
D|---------------------------------------------------------------------------|

SOLO RHYTHM

Same as the chorus riff
E|-----------------------------------------------|
B|-----------------------------------------------|
G|-----2-------------------5---------------------| Play each chord 8 times
D|-----2---------3---------5---------2-----------| in a bar (1+2+3+4+)
A|-----0---------3---------3---------2-----------|
D|---------------3-------------------2-----------|

E|---------------------------------------------------------------------------|
B|---------------------------------------------------------------------------|
G|--------------------7--7--7-7-7-7--2--2--2--2--2--2--2--2------------------|
D|-----3--3--3-3-3-3--7--7--7-7-7-7--2--2--2--2--2--2--2--2------------------|2x
A|-----3--3--3-3-3-3--5--5--5-5-5-5--0--0--0--0--0--0--0--0------------------|
D|-----3--3--3-3-3-3---------------------------------------------------------|

After the solo
E|-----------------------------------------------|
B|-----------------------------------------------| Palm Mute These Chords
G|-----2-------------------5---------------------| Play each chord 8 times
D|-----2---------3---------5---------2-----------| in a bar (1+2+3+4+)
A|-----0---------3---------3---------2-----------|
D|---------------3-------------------2-----------|

CHORUS

INTRO
Tap to rate this tab
 
# A B C D E F G H I J K L M N O P Q R S T U V W X Y Z