Song name
# A B C D E F G H I J K L M N O P Q R S T U V W X Y Z

For The Fallen Dreams - In Sincerity tab

-------------------------------------------------------------------------------
			     IN SINCERITY - For the Fallen Dreams
-------------------------------------------------------------------------------
Tabbed by:Brotenkopf2
Email: tarikYstar@googlemail.com

Tuning:Dropped A#

This is just the Leadguitar part, i think its 99% accurate. Put in some Delay or 
echoe effects and you`ll get it.

Have fun!

e|17~16----16~---------19/21\19\17\16/17\16-----------------14-12----------17|
B|------17----------17----------------------17--15--14--15-------14--15------|
G|---------------------------------------------------------------------------|
D|---------------------------------------------------------------------------|
A|---------------------------------------------------------------------------|
E|---------------------------------------------------------------------------|

e|17-16----------------------------------------------------------------------|
B|------17/19------14---16----13---------------------------------------------|
G|---------------------------------------------------------------------------|
D|---------------------------------------------------------------------------|
A|---------------------------------------------------------------------------|
E|---------------------------------------------------------------------------|

e|17~16----16~---------19/21\19\17\16/17\16-----------------14-12----------17|
B|------17----------17----------------------17--15--14--15-------14--15------|
G|---------------------------------------------------------------------------|
D|---------------------------------------------------------------------------|
A|---------------------------------------------------------------------------|
E|---------------------------------------------------------------------------|


e|17-16-14-16--------------16-17-21\---16-17-21\---16-17-21\-----------------|
B|------------19-17-19-------------------------------------------------------|
G|---------------------------------------------------------------------------|
D|---------------------------------------------------------------------------|
A|---------------------------------------------------------------------------|
E|---------------------------------------------------------------------------|


************************************

| /   slide up
| \   slide down
| h   hammer-on
| p   pull-off
| ~   vibrato
| +   harmonic
| x   Mute note
| b   Bend
| pb  Pre-bend
| br  Bend release
| pbr Pre-bend release
| brb Bend release bend

************************************
Tap to rate this tab
# A B C D E F G H I J K L M N O P Q R S T U V W X Y Z