For The Fallen Dreams - The Call Out Perceptions tab

Artist: For the fallen dreams 
Song: The Call Out Perceptions (Solo)
Album: Relentless

 C |--12h13--12-------------------------------------|
 G |-----------13--13-------------------------------|
 D#|-------------14-----12h14-12-10-12-10-9-10---7--|
 A#|------------------------------------------10----|
 F |------------------------------------------------|
 A#|------------------------------------------------|

 continue ...

 C |------------------------------------------------|
 G |--------------------------------*---------------|
 D#|-7-9-7-9-10-9-10-12-10-12-10-12-12--10h12h10----|
 A#|--------------------------------------------12--|
 F |------------------------------------------------|
 A#|------------------------------------------------|

hey guess what ?? it continue ..

 C |-12h13h12---------------------------------------|
 G |---------13---13--------------------------------|
 D#|------------14------12h14-12-10-12-10-9-10----7-|
 A#|--------------------------------------------10--|
 F |------------------------------------------------|
 A#|------------------------------------------------|

Finally ..

 C |-12-13-12--------12-13-12-15-13-15-17---15h17h15---|
 G |----------13--13--------------------------------15-|
 D#|------------14-------------------------------------|
 A#|---------------------------------------------------|
 F |---------------------------------------------------|
 A#|---------------------------------------------------|

h = Hammer on 

this is my first tab, hope it help ..
Tap to rate this tab
 
# A B C D E F G H I J K L M N O P Q R S T U V W X Y Z