Song name
# A B C D E F G H I J K L M N O P Q R S T U V W X Y Z

For The Fallen Dreams - The Big Empty tab

This is mostly just the intro but the
verse is the same as the intro

Drop A# Tuning
A# F A# D# G C

|-----------------------------------------------------------------|
|-----------------------------------------------------------------|
|-----------------------------------------------------------------|
|---8-8-8-8-8-8---8-8-8-8-8-8---13-13-13-13-13-13---7-7-7-7-7-7---|
|---5-5-5-5-5-5---5-5-5-5-5-5---10-10-10-10-10-10---3-3-3-3-3-3---|
|---5-5-5-5-5-5---5-5-5-5-5-5---10-10-10-10-10-10---3-3-3-3-3-3---|

|-----------------------------------------------------------------|
|-----------------------------------------------------------------|
|-----------------------------------------------------------------|
|---8-8-8-8-8-8---8-8-8-8-8-8---12-12-12-12-12-12---7-7-7-7-7-7---|
|---5-5-5-5-5-5---5-5-5-5-5-5----8--8--8--8--8--8---3-3-3-3-3-3---|
|---5-5-5-5-5-5---5-5-5-5-5-5----8--8--8--8--8--8---3-3-3-3-3-3---|

|----------------------------13------------------|
|------13----15-------13--------15-13------------|
|---15----15----15-15-----15-----------15---14---|
|------------------------------------------------|
|------------------------------------------------|
|------------------------------------------------|

|----------------------------13-------------13---|
|------13----15-------13--------15-13------------|
|---15----15----15-15-----15-----------15--------|
|------------------------------------------------|
|------------------------------------------------|
|------------------------------------------------|


Comment/Rate!

Thanks for looking!
Tap to rate this tab
# A B C D E F G H I J K L M N O P Q R S T U V W X Y Z