Song name
# A B C D E F G H I J K L M N O P Q R S T U V W X Y Z

For The Fallen Dreams - Changes tab

this is my first tab, so it will suck and most likely be wrong. :c


tabbed by; nathan chan

lead guitar :

|-11-|
|-9--|
|-12-|
|-13-| <--- this is the chord used for the intro... i think. i might be wrong
|----|
|----|


(0:29 - 0:57)

|--15--16--15-------------------------------------------------|
|--------------16---------------------------------------------|
|------------------15/17--------------------------------------|
|-------------------------17--18--17--20----------------------|
|-------------------------------------------------------------|
|-------------------------------------------------------------|



|--15--16--15--------------------------------------------------|
|--------------16----------------------------------------------|
|------------------15/17---------------------------------------|
|--------------------------17--18--17--20--------18--20---22---|
|--------------------------------------------------------------|
|--------------------------------------------------------------|


|--15--16--15--------------------------------------------------|
|--------------16----------------------------------------------|
|------------------15/17---------------------------------------|
|--------------------------17--18--17--20--------18--17--------|
|--------------------------------------------------------18----|
|--------------------------------------------------------------|


|--15--16--15--------------------------------------------------|
|--------------16----------------------------------------------|
|------------------15/17---------------------------------------|
|--------------------------17--18--17--20-----18---------------|
|--------------------------------------------------------------|
|--------------------------------------------------------------|




(1:10 - 1:25)

the two 11's kinda.. connect. xD
|--11----------------------11----------|
|------9--8---------8h9p8--------------|
|------------8--------------------(x4)-|
|--------------------------------------|
|--------------------------------------|
|--------------------------------------|


outro:

(1:27 - 2:03)

|--11-------11-------11~-----------------------------------|
|------9p8------9p8----------------------------------------|
|----------------------------------------------------------|
|------------------------play this as it fades out---------|
|----------------------------------------------------------|
|----------------------------------------------------------|

:DD
Tap to rate this tab
# A B C D E F G H I J K L M N O P Q R S T U V W X Y Z