Song name
# A B C D E F G H I J K L M N O P Q R S T U V W X Y Z

For Today - Agape tab

D |---------------13h-17p13----------------------------13h-17p13--------|
A |------------15-----------15---------------------15-----------15------|
F |---------14-----------------14---------------14-----------------14---|
c |--12h15------------------------15~----12h15--------------------------|
G |---------------------------------------------------------------------|
C |---------------------------------------------------------------------|


D|-17h-20p17---------13h-17p13----------------------------|
A|------------18---------------15-------------------------|
F|---------------17---------------14---12\15--17----------|
c|-----------------------------------------------17-15-14-|
G|--------------------------------------------------------|
C|--------------------------------------------------------|


D|----------------------------------------10h-13p10-----------------------|
A|----------------------------11-10-8-10------------11--------------8-10~-|
F|--------------5-7--10-9-7-9--------------------------9h-10p9--7-9-------|
c|--------5-7-8-----------------------------------------------------------|
G|--5-7-8-----------------------------------------------------------------|
C|------------------------------------------------------------------------|


D |---------------13h-17p13----------------------------13h-17p13--------|
A |------------15-----------15---------------------15-----------15------|
F |---------14-----------------14---------------14-----------------14---|
c |--12h15------------------------15~----12h15--------------------------|
G |---------------------------------------------------------------------|
C |---------------------------------------------------------------------|


D|-17h-20p17---------13h-17p13----------------------------|
A|------------18---------------15-------------17-18~------|
F|---------------17---------------14---12\15--------------|
c|--------------------------------------------------------|
G|--------------------------------------------------------|


D|----------------------------------------8h-12p8-------------------------|
A|----------------------------11-10-8-10------------10--------------------|
F|--------------5-7--10-9-7-9--------------------------9h-10p9--7-9-7-----|
c|--------5-7-8-----------------------------------------------------------|
G|--5-7-8-----------------------------------------------------------------|
C|------------------------------------------------------------------------|


I know it's not perfect. If anybody figures out what i did wrong please tell me so i can fix it.
Tap to rate this tab
 
# A B C D E F G H I J K L M N O P Q R S T U V W X Y Z