Song name
# A B C D E F G H I J K L M N O P Q R S T U V W X Y Z

For Today - Words Of Hope tab

----------------------------------------------------------------------------
			     Words of Hope - For Today
----------------------------------------------------------------------------
Tabbed by:Tim
Email:xtommyguntim@yahoo.com

Tuning:Drop Ceezy (CGCFAD)


D|-----------------------------------|
A|-----------------------------------|
F|-----------------------------------|
C|-12-----8------0-------------------|
G|-12-----8------0-----------8~------|
C|-12-----8------0-------------------|


D|------------------------------------|
A|I tried to help with the timing here|
F|------------------------------------|x4
C|------------------------------------|
G|-00--0-00-0-0-0-0-00-0-00000-0-0-0--|
C|-00--0-00-0-0-0-0-00-0-00000-0-0-0--|
   ..  . .. . . . . .. . ..... . . .


D|----------------------------------------------------------|\
A|----------------------------------------------------------| \
F|----------------------------------------------------------| \
C|-12-----12-----8h11---------------------------------------| \ 
G|---------------------7-----7-----7h10--8-----8-----8------| \
C|----0-0----0-0---------0-0---0-0---------0-0---0-0---0----| \
      . .    . .         . .   . .         . .   . .   .       |
                                                               |
D|------------------------------------|                        |
A|------------------------------------|                        | 
F|--14-12-----------------------------|                        |
C|--------15-14-----------------------|                        |
G|--------------17-16-13-16-----------|                        | 
C|------------------------------------|                        | 
                                                               | 
                                                               | 
D|----------------------------------------------------------|  | 
A|----------------------------------------------------------|  |
F|----------------------------------------------------------|  |
C|-12-----12-----8h11---------------------------------------|  x2 
G|---------------------7-----7-----7h10--8-----8-----8------|   |
C|----0-0----0-0---------0-0---0-0---------0-0---0-0---0----|  /
      . .    . .         . .   . .         . .   . .   .      /
                                                             /
                                                  __________/
D|--------------10-13-----------------------|     /
A|-----------10-------11-14-----------------|    /
F|--------10--------------------------------|   /
C|-----12-----------------------------------|  /
G|--13--------------------------------------| /
C|------------------------------------------|/


D|----------------------------------------------------------|
A|----------------------------------------------------------|
F|-12-----12-----12h15-14-----14-----14h15------------------|
C|-----------------------------------------14-----14-----14-|
G|----------------------------------------------------------|
C|----0-0----0-0----------0--0---0-0----------0-0----0-0----|
      . .    . .          .  .   . .          . .    . . 
D|------------------------------------|                        
A|------------------------------------|                        
F|--14-12-----------------------------|                        
C|--------15-14-----------------------|                        
G|--------------17-16-13-16-----------|                         
C|------------------------------------|                        

D|----------------------------------------------------------|
A|----------------------------------------------------------|
F|-12-----12-----12h15-14-----14-----14h15------------------|
C|-----------------------------------------14-----14-----14-|
G|----------------------------------------------------------|
C|----0-0----0-0----------0--0---0-0----------0-0----0-0----|
      . .    . .          .  .   . .          . .    . . 

D|--------------10-13-----------------------|     
A|-----------10-------11-14-----------------|    
F|--------10--------------------------------|   
C|-----12-----------------------------------|  
G|--13--------------------------------------| 
C|------------------------------------------|

D|----------------------------------------------------------|
A|----------------------------------------------------------| 
F|----------------------------------------------------------| 
C|-12-----12-----8h11---------------------------------------|  
G|---------------------7-----7-----7h10--8-----8-----8------| 
C|----0-0----0-0---------0-0---0-0---------0-0---0-0---0----| 
      . .    . .         . .   . .         . .   . .   .       
                                                               
D|------------------------------------|                        
A|------------------------------------|                         
F|--14-12-----------------------------|                        
C|--------15-14-----------------------|                        
G|--------------17-16-13-16-----------|                         
C|------------------------------------|                         
                                                                
                                                                
D|----------------------------------------------------------|   
A|----------------------------------------------------------|  
F|----------------------------------------------------------|  
C|-12-----12-----8h11---------------------------------------|   
G|---------------------7-----7-----7h10--8-----8-----8------|   
C|----0-0----0-0---------0-0---0-0---------0-0---0-0---0----|  
      . .    . .         . .   . .         . .   . .   .      
                                                             
D|--------------10-13-----------------------|     
A|-----------10-------11-14-----------------|    
F|--------10--------------------------------|   
C|-----12-----------------------------------|  
G|--13--------------------------------------| 
C|------------------------------------------|

D|----------------------------------------------------------|
A|----------------------------------------------------------|
F|-12-----12-----12h15-14-----14-----14h15------------------|
C|-----------------------------------------14-----14-----14-|
G|----------------------------------------------------------|
C|----0-0----0-0----------0--0---0-0----------0-0----0-0----|
      . .    . .          .  .   . .          . .    . . 
D|------------------------------------|                        
A|------------------------------------|                        
F|--14-12-----------------------------|                        
C|--------15-14-----------------------|                        
G|--------------17-16-13-16-----------|                         
C|------------------------------------|                        

D|----------------------------------------------------------|
A|----------------------------------------------------------|
F|-12-----12-----12h15-14-----14-----14h15------------------|
C|-----------------------------------------14-----14-----14-|
G|----------------------------------------------------------|
C|----0-0----0-0----------0--0---0-0----------0-0----0-0----|
      . .    . .          .  .   . .          . .    . . 

D|----------------10-13------------13-12-----------------|     
A|-------------10-------11-14------------15-14-----------|    
F|----------10---------------------------------15--------|   
C|-------12----------------------------------------------|  
G|----13-------------------------------------------0--0--|  
C|-------------------------------------------------0--0--|    
                                                   .  .     
                                                      
D|----------------------------------12h13p12--------|\  
A|-------------------14h15p14----------------14-----|\
F|----------------------------14----------------15--|\
C|-------11-11h12----------------15-----------------|\
G|----00----------00--------------------------------|/
C|----00----------00--------------------------------|/
      ..          ..                                 /
                                        ______x6_____/
D|-------------------------------|     /
A|-------------------------------|    /
F|-------------------------------|   /
C|----11-11----------------------|  /
G|-00--------12'-10'-13'-12'-----| /
C|-00----------------------------|/
   ..

D|------------------------------------|
A|------------------------------------|
F|------------------------------------|
C|-------12h14-15p14-15~--------------|
G|-12h15------------------------------|
C|------------------------------------|


D|-17p13--------------------------------------------------|
A|-------15-----------------------------------------------|
F|----------14-15p14-------------14----/17-15-14-15-14----|x5
C|-------------------12----15-12----15--------------------|
G|--------------------------------------------------------|
C|--------------------------------------------------------|

D|-17p13-------------------------------------------------------------|
A|-------15----------------------------------------------------------|
F|----------14-15p14-------------------------14-14-14-14-14-14-14-14-|
C|-------------------12-12-12-12-15-15-15-15-------------------------|
G|-------------------------------------------------------------------|
C|-------------------------------------------------------------------|

CREEPY SWEEPS!!!!!

"These Words Of Hope"

D|----------------------------------------------------------------|
A|----------------------------------------------------------------|
F|-9-------10-------9-------10-------12-10-9-------10------12-----|
C|---11-------11------11-------11------------11-------11----------|
G|------12-------12------12-------12------------12-------12-------|
C|----------------------------------------------------------------|

D|------------------------------------------------|
A|------------------------------------------------|
F|-9-------10-------12-10-9-------10-------12-----|
C|---11-------11------------11-------11-----------|
G|------12-------12------------12-------12--------|
C|------------------------------------------------|

Muted 0's---figure out the timing.

D|---------13h17/18-----------10h13/15----|
A|-------15-----------------11------------|
F|-----14-----------------10--------------| 
C|---15-----------------12----------------|
G|-17-----------------13------------------|
C|----------------------------------------|

D|----------------------------------------------------------|
A|----------------------------------------------------------| 
F|----------------------------------------------------------| 
C|-12-----12-----8h11---------------------------------------|  
G|---------------------7-----7-----7h10--8-----8-----8------| 
C|----0-0----0-0---------0-0---0-0---------0-0---0-0---0----| 
      . .    . .         . .   . .         . .   . .   .       
                                                               
D|------------------------------------|                        
A|------------------------------------|                         
F|--14-12-----------------------------|                        
C|--------15-14-----------------------|                        
G|--------------17-16-13-16-----------|                         
C|------------------------------------|                         
                                                                
                                                                
D|----------------------------------------------------------|   
A|----------------------------------------------------------|  
F|----------------------------------------------------------|  
C|-12-----12-----8h11---------------------------------------|   
G|---------------------7-----7-----7h10--8-----8-----8------|   
C|----0-0----0-0---------0-0---0-0---------0-0---0-0---0----|  
      . .    . .         . .   . .         . .   . .   .      
                                                             
D|--------------10-13-----------------------|     
A|-----------10-------11-14-----------------|    
F|--------10--------------------------------|   
C|-----12-----------------------------------|  
G|--13--------------------------------------| 
C|------------------------------------------|

D|----------------------------------------------------------|
A|----------------------------------------------------------|
F|-12-----12-----12h15-14-----14-----14h15------------------|
C|-----------------------------------------14-----14-----14-|
G|----------------------------------------------------------|
C|----0-0----0-0----------0--0---0-0----------0-0----0-0----|
      . .    . .          .  .   . .          . .    . . 
D|------------------------------------|                        
A|------------------------------------|                        
F|--14-12-----------------------------|                        
C|--------15-14-----------------------|                        
G|--------------17-16-13-16-----------|                         
C|------------------------------------|                        

D|----------------------------------------------------------|
A|----------------------------------------------------------|
F|-12-----12-----12h15-14-----14-----14h15------------------|
C|-----------------------------------------14-----14-----14-|
G|----------------------------------------------------------|
C|----0-0----0-0----------0--0---0-0----------0-0----0-0----|
      . .    . .          .  .   . .          . .    . . 

D|--------------10-13-----------------------|     
A|-----------10-------11-14-----------------|    
F|--------10--------------------------------|   
C|-----12-----------------------------------|  
G|--13--------------------------------------| 
C|------------------------------------------|   
                                                  
D|----------------------------------------------------------|
A|----------------------------------------------------------| 
F|----------------------------------------------------------| 
C|-12-----12-----8h11---------------------------------------|  
G|---------------------7-----7-----7h10--8-----8-----8------| 
C|----0-0----0-0---------0-0---0-0---------0-0---0-0---0----| 
      . .    . .         . .   . .         . .   . .   .       
                                                               
D|------------------------------------|                        
A|------------------------------------|                         
F|--14-12-----------------------------|                        
C|--------15-14-----------------------|                        
G|--------------17-16-13-16-----------|                         
C|------------------------------------|                         
                                                                
                                                                
D|----------------------------------------------------------|   
A|----------------------------------------------------------|  
F|----------------------------------------------------------|  
C|-12-----12-----8h11---------------------------------------|   
G|---------------------7-----7-----7h10--8-----8-----8------|   
C|----0-0----0-0---------0-0---0-0---------0-0---0-0---0----|  
      . .    . .         . .   . .         . .   . .   .      
                                                             
D|--------------10-13-----------------------|     
A|-----------10-------11-14-----------------|    
F|--------10--------------------------------|   
C|-----12-----------------------------------|  
G|--13--------------------------------------| 
C|------------------------------------------|

D|----------------------------------------------------------|
A|----------------------------------------------------------|
F|-12-----12-----12h15-14-----14-----14h15------------------|
C|-----------------------------------------14-----14-----14-|
G|----------------------------------------------------------|
C|----0-0----0-0----------0--0---0-0----------0-0----0-0----|
      . .    . .          .  .   . .          . .    . . 
D|------------------------------------|                        
A|------------------------------------|                        
F|--14-12-----------------------------|                        
C|--------15-14-----------------------|                        
G|--------------17-16-13-16-----------|                         
C|------------------------------------|                        

D|----------------------------------------------------------|
A|----------------------------------------------------------|
F|-12-----12-----12h15-14-----14-----14h15------------------|
C|-----------------------------------------14-----14-----14-|
G|----------------------------------------------------------|
C|----0-0----0-0----------0--0---0-0----------0-0----0-0----|
      . .    . .          .  .   . .          . .    . . 

D|--------------10-13-----------------------|     
A|-----------10-------11-14-----------------|    
F|--------10--------------------------------|x3   
C|-----12-----------------------------------|  
G|--13--------------------------------------| 
C|------------------------------------------|    
                                                  
D|--------------10-13----15-13---------13\--|     
A|-----------10-------11--------------------|    
F|--------10--------------------------------|   
C|-----12-----------------------------------|  
G|--13--------------------------------------| 
C|------------------------------------------|


| /  slide up
| \  slide down
| h  hammer-on
| p  pull-off
| ~  vibrato
| +  harmonic
| x  Mute note
| '  Pick fast
============================================================================
Tap to rate this tab
 
# A B C D E F G H I J K L M N O P Q R S T U V W X Y Z