Song name
# A B C D E F G H I J K L M N O P Q R S T U V W X Y Z

For Today - Immanuel The Challenger tab

This breakdown is stupid complicated and changes tempo. Its all open chords but its 
technical. Ill tab the other part before it, though.
If you want to see a video on how to play the rhythm for the breakdown check out this 
http://www.youtube.com/watch?v=39gMLpvEoSw

The best way to figure out the rhythm to the breakdown is watch my hands in that video 
just listen to the breakdown a lot.
I listened to it probably 50+ times before i got it.
Listen to it and try to get the beat in your head before you play it on guitar.

(In Triplets)
D|----------------------------------------------------------|
A|----------------------------------------------------------|
F|---7--7--7----------6--6--6----------------------6--6--6--|
C|-----------------------------------8--8--8----------------|
G|---5--5--5----------4--4--4--------8--8--8-------4--4--4--|
C|-----------------------------------8--8--8----------------|

(repeat above)
D|---------------------------------------------------------------------------------|
A|---------------------------------------------------------------------------------|
F|---------------------------------------------------------------------------------|
C|----8----8-------11--------------------------------------------------------------|
G|----8----8-------11--------------------------------------------------------------|
C|----8----8-------11--------------------------------------------------------------|
Tap to rate this tab
 
# A B C D E F G H I J K L M N O P Q R S T U V W X Y Z