Song name
# A B C D E F G H I J K L M N O P Q R S T U V W X Y Z

For Today - Isaiah The Willing tab

For Today - Isaiah (The Willing)

Hey, my name's Trey, and i tabbed this song by ear for those who wanna learn it.
It's my first tab, and it sounds pretty accurate.
let me know what you think.
rate, and comment.

Email me for any questions, Killersk8ter1@yahoo.com

EADGBe (Standard Tuning)


*, -Palm Mute
B, -Bend

e ----------------------------------------------------------------------------|
B -13----------13---------------------13------------13------------------------|
G -----13-12--------13-12-10-12-13--------13-12----------13-12-10-12-13-------|
D ----------------------------------------------------------------------------|
A ----------------------------------------------------------------------------|
E ----------------------------------------------------------------------------|

e ----------------------------------------------------------------------------|
B -16----------16-------------------16----------16----------------------------|
G -----13-12-------13-12-10-12-13-------13-12-------13-12-10-12-13------------|
D ----------------------------------------------------------------------------|
A ----------------------------------------------------------------------------|
E ----------------------------------------------------------------------------|

e ----------------------------------------------------------------------------|
B -13----------13--------------------13----------13---------------------------|
G -----13-12--------13-12-10-12-13-------13-12-------13-12-10-12-13-----------|
D ----------------------------------------------------------------------------|
A ----------------------------------------------------------------------------|
E ----------------------------------------------------------------------------|

  (Getting this part was hard = figure it out for yourself, all muted)
e ----------------------------------------------------------------------------|
B ----------------------------------------------------------------------------|
G ----------------------------------------------------------------------------|
D ----------------------------------------------------------------------------|
A -0-00-000-000-00-0-00-0000--------------------------------------------------|
E -0-00-000-000-00-0-00-0000--------------------------------------------------|
   * ** *** *** ** * ** ****

(repeat marked section three times)
e ----------------------------------------------------------------------------|
B ----------------------------------------------------------------------------|
G -------------------l----------------------------------------l---------------|
D -6-5-6-5-6-5-6-5---l--------6---5--------6---5--------6666--l---------------|
A -6-5-6-5-6-5-6-5---l----------------------------------6666--l---------------|
E -6-5-6-5-6-5-6-5---l--0-0-----0----0-0-----0----0-0---4444--l---------------|
                        * *     *    * *     *    * *

(repeat marked section three times)
e ----------------------------------------------------------------------------|
B ----------------------------------------------------------------------------|
G -----------l---------------------------------------l------------------------|
D -3-6-5-3---l--------8----7-----8-----7-------8888--l-3-6-5-3-0-0-0-0-0-0----|
A -3-6-5-3---l---------------------------------8888--l-3-6-5-3-0-0-0-0-0-0----|
E -3-6-5-3---l---00-----0----00-----0----0-0---6666--l-3-6-5-3-0-0-0-0-0-0----|
                 **     *    **     *    * *

e -----------------------------------b15--------------b15---------------------|
B ---------------------------------------16-b15-----------16-b15--------------|
G ----------------------------------------------------------------------------|
D -0-00-0-00-0-0-00-0-00-0----------------------------------------------------|
A -0-00-0-00-0-0-00-0-00-0----------------------------------------------------|
E -0-00-0-00-0-0-00-0-00-0----------------------------------------------------|
   * ** * ** * * ** * ** *

e --------------------------------------------b15-----------------------------|
B ------------------------------------------------16-b15----------------------|
G ----------------------------------------------------------------------------|
D ----------------------------------------------------------------------------|
A -b4------------------b4-----------------------------------------------------|
E ----000-000-000-000-----000-000-000-000-------------------------------------|
      *** *** *** ***     *** *** *** ***

(repeat marked section six times)
e ----------------------------------------------------------------------------|
B l-------------------------------l-------------------------------------------|
G l-8-----10------11------7-------l-------------------------------------------|
D l-x(x8)-x(x4)---x-(x4)--x-(x14)-l-------------------------------------------|
A l-6-----8-------9-------5-------l-------------------------------------------|
E l-------------------------------l-------------------------------------------|


(repeat marked section 5 times, i think. if not, you can figure it out :P.)
e -----------------------------------------------------------------------------|
B l-----------------------l----------------------------------------------------|
G l-8-----7----5-----7----l-------------------------------------------------5--|
D l-x(x4)-x(8)-x(x4)-x(8)-l-0-6-7-0-6-7-0-6-7-0-6-7---6-5-------------5---5----|
A l-6-----5----3-----5----l-0-6-7-0-6-7-0-6-7-0-6-7-------6---------6----------|
E l-----------------------l-0-6-7-0-6-7-0-6-7-0-6-7-0-------0-000-0-----0------|
                                                    *       * *** *     *
(repeat this pattern, up until open palm mutes)
e -----------------------------------------------------------------------------|
B -----------------------------------------------------------------------------|
G -------------------------5---------------------------------------------------|
D -6-5--------------5---5------------------------------------------------------|
A -----6----------6------------------------------------------------------------|
E -------0-000-0------0--------------------------------------------------------|
         * *** *      *
Tap to rate this tab
# A B C D E F G H I J K L M N O P Q R S T U V W X Y Z