Song name
# A B C D E F G H I J K L M N O P Q R S T U V W X Y Z

For Today - Benedictus Song Of Zechariah tab

Help us improve GuitareTab! Take a short survey!
Ok so no tabs for this. this is a absolutely amazing instrumental.
check out my youtube channel for my cover of this song and many more for today 
songs http://www.youtube.com/user/battleaxbass52195

b=bend
nh=natural harmonic
h=hammer on
p= pull off
/slide up
T=Tap

I play it in Drop C
so thats what this is tabbed in.

Intro (clean guitar)
|--------------------------|
|------8-----------10------|
|--------------------------|
|----8----8-----10-----10--|
|-6----------8-------------|
|--------------------------|

|-------------------13p10--------------|
|-------------10h11------13p11-10h11---|this is played twice at the
|-------10-----------------------------| end of each time. just listen
|----12----12--------------------------| to the song.
|-10-----------------------------------|
|--------------------------------------|


The last 2 times you play the intro its very slightly different
you play

|----------------------|
|------8-------11-10---|
|----------------------|
|---8----8---10--------| then everything else is the same
|-6--------8-----------|
|----------------------|


LEAD. when the lead comes in:
|----------------------------------|
|----------------------------------|
|-/15-14----/15-14-----------------|
|------------------10--8-7-8--15T--|
|--------17------------------------|
|----------------------------------|


|----------------------------------------------------------------|
|----------------------------------------------------------------|
|-/15-14----/15-14-------------------------------10/12--10-12-14-|
|------------------10--8-7-8-----------8----8-10-----------------|
|--------17-------------------10--8-10---10----------------------|
|----------------------------------------------------------------|

|----------------------------------|
|----------------------------------|
|-/15-14----/15-14-----------------|
|------------------10--8-7-8--15T--|
|--------17------------------------|
|----------------------------------|


|------------------13-15-17-18-20-18-20b-20-|
|-------------------------------------------|
|-/15-14----/14-15--------------------------|
|-------------------------------------------|
|--------17---------------------------------|
|-------------------------------------------|


|-15--13-15-13---------------------|
|--------------13-11---------------|
|--------------------12-12-10------|
|-----------------------------10-8-|
|----------------------------------|
|----------------------------------|


|-------------------------|
|-------------------------|
|-------------------------|
|---------------3---3-5---|
|-----1---1-3-5---5-------|
|-5-5---5-----------------|


|--------------------------------------------------------------|
|-/8-6-10-10-10h11p10------------------------------------------|
|---------------------12p10-12p10----------------10---10-12-14-|
|--------------------------------10--8----8-10-12---12---------|
|--------------------------------------10----------------------|
|--------------------------------------------------------------|

the first 15 is a BIG bend. you can also use a half bend on the 16th fret
the second 15 is a half bend
|-------------|
|-------------|
|-15b^^-15b---|
|-------------|
|-------------|


|-/15-13--/17-15---17h18h20p18p17-----------------------------------|
|---------------------------------18--------------------------------|
|------------------------------------17h19p17--14h15p14-------------|
|-------------------------------------------------------15----------|
|----------------------------------------------------------15-13----|
|----------------------------------------------------------------17-|


|-17b----17b------------------------|
|-----15-----13-11-10h11-18T----5nh-|
|-----------------------------------|
|-----------------------------------|
|-----------------------------------|
|-----------------------------------|
Related for Benedictus Song Of Zechariah tab