Song name
# A B C D E F G H I J K L M N O P Q R S T U V W X Y Z

For Today - Talmidim tab

---------------------------------------------------------------------------
		      Talmidim (The Servants) - For Today
----------------------------------------------------------------------------
Tabbed by: Kridly
Email: Kridly@gmail.com

Tuning:Drop C (CGCFAD)

I'll tab out the basics and you can figure out the strumming patterns.

Intro: Same as next section.

Lord Of Glory Make Us Worthy:

D|---------------------------------------|
A|---------------------------------------|
F|--7-7-7--5-5-5--10-10-10--9--9--9------|
C|--7-7-7--7-7-7--10-10-10--10-10-10-----|<2x
G|--5-5-5--8-8-8--8--8--8---7--7--7------|
C|---------------------------------------|

To Posses Your: 

D|----------------------|
A|----------------------|
F|--10-10-10---12-------|
C|--10-10-10---10
Tap to rate this tab
# A B C D E F G H I J K L M N O P Q R S T U V W X Y Z