Song name
# A B C D E F G H I J K L M N O P Q R S T U V W X Y Z

For Today - Talmidim tab

Tabbed by:Kevinator.

Tuning:Drop C


Basically,
Heres the chords,
Ive played it and Its very close, so if it sounds wrong to you
your probly playin it wrong.
Im not sure if it's completely right though...

Hope this helps,
God Bless.


D|---------------------------------------------------------|
A|---------------------------------------------------------|
F|--------------------------------101010---9--9-9-9--------| PLAY
C|-12-121212---10-101010-1010-----8-8-8----8--8-8-8--------|   TWICE
D|-8--8-8-8----8--8-8-8--8-8------8-8-8----8--8-8-8--------|
C|-8--8-8-8----8--8-8-8--8-8------8-8-8----8--8-8-8--------|


  Then:

D|------------------------------------------------------------|
A|------------------------------------------------------------|
F|-10-101010---12-12121212-12-1212-12--9--9-9-9-9-9-9-9-9-----|
C|-8--8-8-8----8--8-8-8-8--8--8-8--8---10-1010101010101010----|
D|-8--8-8-8----8--8-8-8-8--8--8-8--8---8--8-8-8-8-8-8-8-8-----|
C|-8--8-8-8----8--8-8-8-8--8--8-8--8---8--8-8-8-8-8-8-8-8-----|



         The strummings off haha,
         But who cares you guys can figure it out yourself,
         It's easy.

         :]

Tap to rate this tab
# A B C D E F G H I J K L M N O P Q R S T U V W X Y Z