Song name
# A B C D E F G H I J K L M N O P Q R S T U V W X Y Z

For Today - Benedictus Song Of Zechariah tab

		                 
                                  Benedictus (Song of Zechariah) - For Today


Tabbed by: John Stubblefield (stubbs08_09)
Email: stubblefield.john0809@gmail.com

Tuning: Drop C 

  Guitar 1 clean
   Intro
D|------------------------------------------13p10---------------|
A|------8---------10------------------10h11-------13p11-10h11---|
F|-----------------------------10-------------------------------|
C|---8-----8---10----10-----12----12----------------------------|
G|-6---------8-----------10-------------------------------------|
C|--------------------------------------------------------------|


D|-------------------13p10---------------|
A|-------------10h11-------13p11-10h11---|
F|-------10------------------------------| x5
C|----12----12---------------------------|
G|-10------------------------------------|
C|---------------------------------------|

   0:50
D|----------------------------------------------13p10---------------|
A|------8----------10/11-10---------------10h11-------13p11-10h11---|
F|---------------------------------10-------------------------------|
C|---8-----8---10---------------12----12----------------------------|
G|-6---------8---------------10-------------------------------------|
C|------------------------------------------------------------------|


D|-------------------13p10---------------|
A|-------------10h11-------13p11-10h11---|
F|-------10------------------------------| x2
C|----12----12---------------------------|
G|-10------------------------------------|
C|---------------------------------------|

 Guitar 2 distorted (Guitar 1 continues to play the intro throughout the song)
   1:10      ph
D|---------------------------------|
A|---------------------------------|
F|-/15\14----15-14-----------/10---|
C|--------12--------10\8-7/8-------|
G|---------------------------------|
C|---------------------------------|

   1:20
D|---------------------------------------------------------------|
A|---------------------------------------------------------------|
F|-/15\14----15-14-----------------------------10/12--10/12/14---|
C|--------12--------10\8-7/8----------8----8/10------------------|
G|---------------------------10--8-10---10-----------------------|
C|---------------------------------------------------------------|

   1:30
D|-----------------------------------------|
A|-----------------------------------------|
F|-14b(15)r14----14b(15)r14----------/10---|
C|------------12------------10\8-7/8-------|
G|-----------------------------------------|
C|-----------------------------------------|

   1:40
D|------------------13-15-17-18-20-18-20b-19hb---|
A|-----------------------------------------------|
F|-/15\14----/14-15------------------------------|
C|--------12-------------------------------------|
G|-----------------------------------------------|
C|-----------------------------------------------|

   1:55
D|-13/15-13-13/15-13------------------------------|
A|--------------------13-11-----------------------|
F|--------------------------12-10/12-12\10--------|
C|-----------------------------------------10~\---|
G|------------------------------------------------|
C|------------------------------------------------|

   2:00
D|--------------------------------------------------------------------|
A|------------------------/8----10-10-10-10b(11)r10-------------------|
F|---------------------------10---------------------12p10-12p10-------|
C|---------------3---3/5----------------------------------------/10---|
G|-----1---1/3-5---5--------------------------------------------------|
C|-5-5---5------------------------------------------------------------|

   2:07
D|-----------------------------------------|
A|-----------------------------------------|
F|--------------10----10/12/14-15br-15h----|
C|-8----8/10-12----12----------------------|
G|---10------------------------------------|
C|-----------------------------------------|

   2:15
D|-15-13-17-15-17h18h2p18p17----------------------------------|
A|---------------------------18-------------------------------|
F|------------------------------17h19p17-14h15h14-------------|
C|-----------------------------------------------15-----------|
G|-------------------------------------------------15\13-10---|
C|------------------------------------------------------------|


   2:20                                     nh
D|-17b(18)r17----17b(18)r17-------------13------|
A|------------15------------13\11-10/11-----5---|
F|----------------------------------------------|
C|----------------------------------------------|
G|----------------------------------------------|
C|----------------------------------------------|


| b   bend (whole step unless otherwise indicated)
| hb  half bend 
| r   return
| /   slide up
| \   slide down
| h   hammer-on
| p   pull-off
| ~   vibrato
| ph  pinch harmonic
| nh  natural harmonic
Tap to rate this tab
# A B C D E F G H I J K L M N O P Q R S T U V W X Y Z