Song name
# A B C D E F G H I J K L M N O P Q R S T U V W X Y Z

For Today - Immanuel The Challenger tab

all credits go to ryancmetal and his tab for the cov of this song, tuning drop c,the 
may sound weird at first but with speed there should not be any problem:

Intro:

d[----------------------------------------------------------------]
a[----------------------------------------------------------------]
f[----------------------------------------------------------------]
c[----------------------------------------------------------------]
g[--------------5---------------4--------------5---------------4--]
c[2---2-2-2--3-----3---3-3-3-2-----7--7-7-7-5-----5---5-5-5-3-----]

d[----------------------------------------------------------------]
a[----------------------------------------------------------------]
f[----------------------------------------------------------------]
c[----------------------------------------------------------------]
g[--------------5---------------4--------------8---------------4--]
c[2---2-2-2--3-----3---3-3-3-2-----7--7-7-7-5-----5---5-5-5-3-----]

Sweeps:

d[---------------10h13-t15-p13p10-------------------------------------]
a[------------11------------------11----------------------------------]
f[---------12------------------------12-------------------------------]
c[------12------------------------------12----------------------------]
g[10h13------------------------------------13-------------------------]
c[--------------------------------------------------------------------]

d[---------------10h13-t18-p13p10-------------------------------------]
a[------------11------------------11----------------------------------]
f[---------12------------------------12-------------------------------]
c[------12------------------------------12----------------------------]
g[10h13------------------------------------13-------------------------]
c[--------------------------------------------------------------------]
                    (or a 21 b)
d[---------------10h13-t22-p13p10-------------------------------------]
a[------------11------------------11----------------------------------]
f[---------12------------------------12-------------------------------]
c[------12------------------------------12----------------------------]
g[10h13------------------------------------13---0---------------------]
c[---------------------------------------------0----------------------]

Breakdown(Outro):

d[--------------------------------------------------------------------]
a[--------------------------------------------------------------------]
f[--------------------------------------------------------------------]
c[--------------------------------------------------------------------]
g[0000-----0-----00-------0000---0-----000-000----00---00--0000---0000]
c[0000-----0-----00-------0000---0-----000-000----00---00--0000---0000]

d[--------------------------------------------------------------------]
a[--------------------------------------------------------------------]
f[--------------------------------------------------------------------]
c[--------------------------------------------------------------------]
g[0000-----00-----000-0-000--------000-000--0-----000-000--0----------]
c[0000-----00-----000-0-000--------000-000--0-----000-000--0----------]

d[--------------------------------------------------------------------]
a[--------------------------------------------------------------------]
f[--------------------------------------------------------------------]
c[--------------------------------------------------------------------]
g[000---0---0--00------0000-0-000-000---00--00-0000----0000-----------]
c[000---0---0--00------0000-0-000-000---00--00-0000----0000-----------]

d[--------------------------------------------------------------------]
a[--------------------------------------------------------------------]
f[--------------------------------------------------------------------]
c[--------------------------------------------------------------------]
g[0000----0----000000-------000---0------000---000---0--0000---0000---]
c[0000----0----000000-------000---0------000---000---0--0000---0000---]

thanks enjoy!
Tap to rate this tab
 
# A B C D E F G H I J K L M N O P Q R S T U V W X Y Z