Song name
# A B C D E F G H I J K L M N O P Q R S T U V W X Y Z

For Today - Isaiah The Willing tab

Hey im Charly this is my first tab i've tried to figure out some parts of this song,im 
my tab on 'guitargazz' tab on here so you can call this a correction of that tab im NOT 
it. It's not a 100% accurate but i hope it's helpful. Any corrections are welcomed 
charlyvengance@aol.com

b-bending .-Palm mute br-bending release ~-let it ring

Drop C tunning(CGCFAD)low to high

intro

D---------------------------------------------------------------------------|
A-15----------15---------------------15------------15-----------------------|
F-----15-14--------15-14-12-14-15--------15-14----------15-14-12-14-15------|
C---------------------------------------------------------------------------|
G---------------------------------------------------------------------------|
C---------------------------------------------------------------------------|

D---------------------------------------------------------------------------|
A-18----------18-------------------18----------18---------------------------|
F----15-14-------15-14-12-14-15-------15-14-------15-14-11-14-15------------|
C---------------------------------------------------------------------------|
G---------------------------------------------------------------------------|
C---------------------------------------------------------------------------|

D---------------------------------------------------------------------------|
A-15----------15--------------------15----------15--------------------------|
F----15-14--------15-14-12-14-15-------15-14-------15-14-12-14-15-----------|
C---------------------------------------------------------------------------|
G---------------------------------------------------------------------------|
C---------------------------------------------------------------------------|

1st Breakdown (00:28)the pattern is kinda hard im sure you'll it figure out
D---------------------------------------------------------------------------|
A---------------------------------------------------------------------------|
F---------------------------------------------------------------------------|
C---------------------------------------------------------------------------|
G-0-00-000-000-00-0-00-0000-------------------------------------------------|
C-0-00-000-000-00-0-00-0000-------------------------------------------------|
  . .. ... ... .. . .. ....
Guitar 1 joins at (00:58-1:12)
D---------------------------------------------------------------------------|
A---------------------------------------------------------------------------|
F---------------------------------------------------------------------------|
C---------------------------------------------------------------------------|
G-0-00-000-000-00-0-00-0000-------------------------------------------------|
C-0-00-000-000-00-0-00-0000-------------------------------------------------|
  . .. ... ... .. . .. ....

(x3)
D---------------------------------------------------------------------------|
A---------------------------------------------------------------------------|
F---------------------------------------------------------------------------|
C--3-5-3-2-3-5-3-2----------8---7---------8---7------------9---9---9--------|
G--3-5-3-2-3-5-3-2---------------------------------------12--12--12---------|
C--3-5-3-2-3-5-3-2-----00----0--------00-----0----0-0-----------------------|
                       ..    .        ..     .    . .
(x6)
D---------------------------------------------------------------------------|
A---------------------------------------------------------------------------|
F---------------------------------------------------------------------------|
C--3-5-3-2-3---------------12---11---------12--11----------12---12---12-----|
G--3-5-3-2-3-------------------------------------------15---15----15--------|
C--3-5-3-2-3-----------00----0--------00-----0----0-0-----------------------|
                       ..    .        ..     .    . .
D---------------------------------------------------------------------------|
A---------------------------------------------------------------------------|
F---------------------------------------------------------------------------|
C--3-5-3-2-0----------------------------------------------------------------|
G--3-5-3-2-0--0-0-0--0-0-0---0--0-------------------------------------------|
C--3-5-3-2-0--0-0-0--0-0-0---1--1-------------------------------------------|            
 . . .  . . .   .  .

This is the end of the world!!...(Guitar 1) 2nd Breakdown
D----------------------------------b17--------------b17---------------------|
A--------------------------------------18-br17-----------18br17-------------|
F---------------------------------------------------------------------------|
C---------------------------------------------------------------------------|
G--0-00-0-00-0-0-00-0-00-0--------------------------------------------------|
C-b1-00-0-00-0b1-00-0-00-0--------------------------------------------------|
   . .. . .. . . .. . .. .

Guitar 2 plays this
D---------------------------------------------------------------------------|
A---------------------------------------------------------------------------|
F---------------------------------------------------------------------------|
C---------------------------------------------------------------------------|
G--0-00-0-00-0-0-00-0-00-0--------------------------------------------------|
C-b1-00-0-00-0b1-00-0-00-0--------------------------------------------------|
   . .. . .. . . .. . .. .
(x6)
D---------------------------------------------------------------------------|
A---------------------------------------------------------------------------|
F-7-----9-------10------5---------------------------------------------------|
C-x(x8)-x(x4)---x-(x4)--x-(x14)---------------------------------------------|
G-5-----7-------8-------3---------------------------------------------------|
C---------------------------------------------------------------------------|

(3:24-3:45)
D---------------------------------------------------------------------------|
A---------------------------------------------------------------------------|
F------------------------7--------------------------------------------------|
C---8-7-------------7-------------------------------------------------------|
G------5--------------4-----------------------------------------------------|
C-0-------0-000-0-8---------------------------------------------------------|
  .       . ... .

3rd breakdown
D----------------|----------------------------------------------------------|
A----------------|----------------------------------------------------------|
F----------------|----------------------------------------------------------|
C----------------|----------0~----------------------------------------------|
G-0-0-0000-0-(x2)|-0-0-0000-0~----------------------------------------------|
C-0-0-0000-0-----|-0-0-0000-0~----------------------------------------------|
  . . .... .       . . ....

please comment,rate enjoy it!
Tap to rate this tab
# A B C D E F G H I J K L M N O P Q R S T U V W X Y Z