Song name
# A B C D E F G H I J K L M N O P Q R S T U V W X Y Z

For Today - Intro tab

For Today- Intro (Ekklesia)
Tabbed by Jimmy (ATBgod92)

This is For Todayís intro track from their album Ekklesia. This is how I play it and as 
can see, itís not that hard. Comment or message me for any questions. This is my first 
so if itís bad Iím sorry.

This section 3x
D |-------------------------------------------------------------------------|
A |------13h15p13-----------------------------------------------------------|
F |---------------14--------------------------------------------------------|
C |14h15-------------15p14h15p14--12p10h12p10-------------------------------|
G |-------------------------------------------8-----------------------------|
C |-------------------------------------------------------------------------|

D |------------------------13p12-------17p13--------------------------------|
A |------13h15p13----------------13p11-------17-----------------------------|
F |---------------14--------------------------------------------------------|
C |14h15-------------15p14--------------------------------------------------|
G |-------------------------------------------------------------------------|
C |-------------------------------------------------------------------------|

D |-------------------------------------------------------------------------|
A |------13h15p13-----------------------------------------------------------|
F |---------------14--------------------------------------------------------|
C |14h15-------------15p14h15p14--12p10h12p10-------------------------------|
G |-------------------------------------------8-----------------------------|
C |-------------------------------------------------------------------------|

D |-------------------------------------------------------------------------|
A |-------------------------------------------------------------------------|
F |------12h14p12-----------------------------------------------------------|
C |14h15----------15p14h15\12~----------------------------------------------|
G |-------------------------------------------------------------------------|
C |-------------------------------------------------------------------------|

This section 2x
D |--------------------------------------------------------------------------|
A |--------------------------------------------------------------------------|
F |--------------------------------------------------------------------------|
C |0~------------------------------------------------------------------------|
G |0~---00---00---00---0-0---00---00---00------------------------------------|
C |0~---00---00---00---0-0---00---00---00------------------------------------|
        P.M.-----------------------------------------------------------------|

End on:
D |------------------|
A |------------------|
F |------------------|
C |0~----------------|
G |0~----------------|
C |0~----------------|
Tap to rate this tab
 
# A B C D E F G H I J K L M N O P Q R S T U V W X Y Z