Song name
# A B C D E F G H I J K L M N O P Q R S T U V W X Y Z

For Today - Talmidim tab

----------------------------------------------------------------------------
	           Talmidim (The Servants) - For Today
----------------------------------------------------------------------------
Tabbed by: downfromthesky
Email: zekai_a7x@hotmail.com

Tuning: For Today plays in drop C, but im tabbing this song out for Drop D.

e|--------------------------------------------------------------------------|
B|--------------------------------------------------------------------------|
G|--------------------------------------------------------------------------|
D|-10--1010101010--1010101010--1010101010-10101010--8--88888-88888-88888----|
A|-6---6-6-6-6-6---6-6-6-6-6---6-6-6-6-6--6-6-6-6---6--66666-66666-66666----|
D|-6---6-6-6-6-6---6-6-6-6-6---6-6-6-6-6--6-6-6-6---5--55555-55555-55555----|

e|--------------------------------------------------------------------------|
B|--------------------------------------------------------------------------|
G|--------------------------------------------------------------------------|
D|-8888--13-13131313-13h15-1515151515-1515151515-15151515--12-1212121212----|
A|-6666--10-10101010-10----1010101010-1010101010-10101010--8--8-8-8-8-8-----|
D|-5555--10-10101010-10----1010101010-1010101010-10101010--8--8-8-8-8-8-----|

e|-------------------------------------------------------------------------|
B|-------------------------------------------------------------------------|
G|-------------------------------------------------------------------------|
D|-1212121212-1212121212-12121212------------------------------------------|
A|-8-8-8-8-8--8-8-8-8-8--8-8-8-8-------------------------------------------|
D|-8-8-8-8-8--8-8-8-8-8--8-8-8-8-------------------------------------------|


That's it boys and girls :)
wish i could tab the whole song out but im lazy.
take care :)
Tap to rate this tab
 
# A B C D E F G H I J K L M N O P Q R S T U V W X Y Z