Song name
# A B C D E F G H I J K L M N O P Q R S T U V W X Y Z

For Today - Talmidim tab

Intro
----------------------------------|
----------------------------------|
---------------------------9------|
--12----10---14---12----10-10-----|
--8-----8----8----8-----8--8------|
--8-----8----8----8-----7--7------|

----------------------------------|
----------------------------------|
----------------------------------|
--10----12---14---12----8---------|
--8-----8----8----8-----6---------|
--8-----8----8----8-----6---------|

When Voices come in..

--------------------------------------|
--------------------------------------|
-----------------------------9--------|
--10----12---14---12----10---10-------|
--8-----8----8----8-----8----8--------|
--8-----8----8----8-----7----7--------|

----------------------------------|
----------------------------------|
----------------------------------|
--10----12---14---12----8---------|
--8-----8----8----8-----6---------|
--8-----8----8----8-----6---------|

And give us a new name...(drums come in)

----------------------------------|
----------------------------------|
----------------------------------|
--10----10---10---12--------------|
--8-----8----8----8---------------|
--8-----7----8----8---------------|

the you just keep repeating an thats pretty much it.. enjoy
Tap to rate this tab
# A B C D E F G H I J K L M N O P Q R S T U V W X Y Z