Song name
# A B C D E F G H I J K L M N O P Q R S T U V W X Y Z

For Today - Never Lose Sight Of The Goals tab

Band: For Today
Album: Ekklesia
Tuning: Drop C
Email: Thatwouldbejon@aol.com

Ive waited forever for someone to tab this so i finally just said F it ill do it myself.
this tab was done half by ear and half by watching live videos so there
likely will be many mistakes. enjoy.

*Finishing This Tab Soon*
      Want to help?
(Most of this tab is for the lower guitar harmony)

Intro

D|-------------------------------------|
A|-------------------------------------|
F|-------------------------------------|
C|-7--000--0-0-0--10-10--8-8--7-7--3-3-|
G|-7--000--0-0-0--10-10--8-8--7-7--3-3-|
C|-7--000--0-0-0--10-10--8-8--7-7--3-3-|
      ...  . . .

D|------------------------------|
A|------------------------------|
F|------------------------------|
C|-7--000--0-0-0--10-10--8-8--7-|
G|-7--000--0-0-0--10-10--8-8--7-|
C|-7--000--0-0-0--10-10--8-8--7-|
      ...  . . .

Chorus

D|----------------------------------|
A|----------------------------------|
F|----------------------------------|
C|-0~-0--7--3--0-0--5--3--2h3--0-0~-|
G|-0~-0--7--3--0-0--5--3--2h3--0-0~-|
C|-0~-0--7--3--0-0--5--3--2h3--0-0~-|
      .        . .             .
Chorus Fill 1

D|--------------------------------|
A|--------------------------------|
F|-------------7------------------|
C|------7h8h10---10p8-7h8p7-------|
G|--7h8---------------------8p7---|
C|--------------------------------|

Chorus Fill 2


Verse

D|------------------------|---------------------------|
A|------------------------|---------------------------|
F|------------------------|------------------14h15h17-|
C|--10s12-14-17-15-14-15--|-10s12-14-14h15h17---------|
G|------------------------|---------------------------|
C|------------------------|---------------------------|

Breakdown

(Listen for pattern)
D|------------------------------------|
A|------------------------------------|
F|------------------------------------|
C|--0---------------------------------|
G|--0---------------------------------|
C|--0---------------------------------|
    .
Clean Interlude

D|---------------------------------|
A|-6-------------------------------|
F|-5-------------------------------|
C|-3-------------------------------|
G|-3-------------------------------|
C|-3-------------------------------|

Verse 2

D|---------------------------------------|
A|---------------------------------------|
F|---------------------------------------|
C|---------------------------------------|
C|--0h2h3-(x8)---------------------------|
G|---------------------------------------|


Comments/Corrections are appreciated!
Tap to rate this tab
# A B C D E F G H I J K L M N O P Q R S T U V W X Y Z