Song name
# A B C D E F G H I J K L M N O P Q R S T U V W X Y Z

For Today - King tab

drop c, i learned it by ear so it probably isn't exact, but its close
Drop C: C G C F A D

D-17h13--------------13h17p13----------17-15-13----------------------|
A------15----------15--------15----------------17-15-14--------------|
F--------14------14------------14----------------------15-14-12------|
C----------15--15----------------15----------------------------15-14-|
G------------17--------------------17~-------------------------------|
C--------------------------------------------------------------------|

D---------------------------------------------------------------------------|
A---------------------------------------------15-14h15p14--14------18-17-13-|
F-----------------14-16-----------------14-16------------15--15-14----------|
C---------14-16-17--------------14-16-17------------------------------------|
G-14-16-17--------------14-16-17--------------------------------------------|
C---------------------------------------------------------------------------|
                                                                           ^
                                                                           |
the second time of playing it play 13 then 15 ------------------------------
right there
sorry i ran out of room and im lazy i guess have fun guys its an awesome solo
Tap to rate this tab
 
# A B C D E F G H I J K L M N O P Q R S T U V W X Y Z