For Today - The Breakers Commission tab

----------------------------------------------------------------
                 The Breaker's Commission - For Today
----------------------------------------------------------------
Tabbed by: Nick (downfromthesky)
Email: Zekai_a7x@hotmail.com

Pretty easy song to play, good luck!

Tuning: Drop C

Clean guitar w/ chorus and 500ms delay
D|-----------------------------13--------------------|
A|--------------------------------------17-----------|
F|---10/12---12/14---14/17~-------14-------17----19~-|
C|-0-------0-------0---------------------------------|
G|--------------------------13~------15~------17~----|
C|---------------------------------------------------|

D|---------------------------------------------------------------|
A|-----------------------------------------11~-10~---------------|
F|---10/12---12/14---14/17-17-17h19p17-------------10~-9h10p9----|
C|-0-------0-------0-------------------19---------------------10-|
G|------------------------------------------8~--8~---------------|
C|-------------------------------------------------10~-----------|

"He is here, he was there, etc"

D|--8~--------------------------------------10~---|
A|--8~-----------6~-------------------------10~---|
F|-10~-----------5~----------10~------------12~---|
C|-10~-----------x-----------10~------------12~---|
G|--8~-----------5~-----------8~------------10~---|
C|----------------------------8~------------10~---|

Kick on the distortion

D|------------------------------------------------------------------|
A|------------------------------------------------------------------|
F|------------------------------------------------------------------|
C|-3-3-3-3-3-3-3-3-3-3-3-3-3-3-3-3--0-0-0-0-0-0-0-0-0-0-0-0-0-0-0-0-|
G|-3-3-3-3-3-3-3-3-3-3-3-3-3-3-3-3--0-0-0-0-0-0-0-0-0-0-0-0-0-0-0-0-|
C|-3-3-3-3-3-3-3-3-3-3-3-3-3-3-3-3--0-0-0-0-0-0-0-0-0-0-0-0-0-0-0-0-|

D|---------------------------------------------------------------------|
A|---------------------------------------------------------------------|
F|-3-3-3-3-3-3-3-3-3-3-3-3-3-3-3-3--5-5-5-5-5-5-5-5-5-5-5-5-5-5555-----|
C|-3-3-3-3-3-3-3-3-3-3-3-3-3-3-3-3--5-5-5-5-5-5-5-5-5-5-5-5-5-5555-5---|
G|-1-1-1-1-1-1-1-1-1-1-1-1-1-1-1-1--3-3-3-3-3-3-3-3-3-3-3-3-3-3333-5---|
C|-----------------------------------------------------------------5---|
pm                                                          * ****

Last time end on:

D|----|
A|----|
F|----|
C|-3~-|
G|-3~-|
C|-3~-|

There she is, enjoy!


/ slide up
~ vibrato
pm(*) palm mute
x muted string
Tap to rate this tab
 
# A B C D E F G H I J K L M N O P Q R S T U V W X Y Z