Song name
# A B C D E F G H I J K L M N O P Q R S T U V W X Y Z

For Today - Isaiah The Willing tab

For Today

Isaiah (The Willing)

INTRO

this is my first tab i'v made and i hope you like it =) 



E--------------|---------------------------------|
B--11----------|-11------------------11----------|
G------11--10--|-----11--10--8-10-11-----11---10-|
D--------------|---------------------------------|
A--------------|---------------------------------|
E--------------|---------------------------------|

E--------------|---------------------------------|
B--11----------|-11------------------11----------|
G------11--10--|-----11--10--8-10-11-----11---10-|
D--------------|---------------------------------|
A--------------|---------------------------------|
E--------------|---------------------------------|

(NOW THE DRUMS)
E--------------|---------------------------------|
B--11----------|-11------------------11----------|
G------11--10--|-----11--10--8-10-11-----11---10-|
D--------------|---------------------------------|
A--------------|---------------------------------|
E--------------|---------------------------------|

E--------------|---------------------------------|
B--11----------|-11------------------11----------|
G------11--10--|-----11--10--8-10-11-----11---10-|
D--------------|---------------------------------|
A--------------|---------------------------------|
E--------------|---------------------------------|

(NOW THE SCREAMING)
E--------------|----------------------------------|
B--13----------|-13-------------------13----------|
G------13--12--|-----13--12--10-12-13-----11---10-|
D--------------|----------------------------------|
A--------------|----------------------------------|
E--------------|----------------------------------|

E--------------|----------------------------------|
B--13----------|-13-------------------13----------|
G------13--12--|-----13--12--10-12-13-----11---10-|
D--------------|----------------------------------|
A--------------|----------------------------------|
E--------------|----------------------------------|

E--------------|----------------------------------|
B--13----------|-13-------------------13----------|
G------13--12--|-----13--12--10-12-13-----11---10-|
D--------------|----------------------------------|
A--------------|----------------------------------|
E--------------|----------------------------------|

E--------------|----------------------------------|
B--13----------|-13-------------------13----------|
G------13--12--|-----13--12--10-12-13-----11---10-|
D--------------|----------------------------------|
A--------------|----------------------------------|
E--------------|----------------------------------|

Have Fun! =)
Tap to rate this tab
 
# A B C D E F G H I J K L M N O P Q R S T U V W X Y Z