Song name
# A B C D E F G H I J K L M N O P Q R S T U V W X Y Z

For Today - Talmidim The Servants tab

This is a really nice song by For Taday, not too hard to play either. Comment and rate!

Tuning: Drop D

Intro: x2
e|-----------------------------------------|
B|-----------------------------------------|
G|-------------------------8-88888\7-7777--|
D|--10-10101010---8-8888---6-66666-6-6666--|
A|--6--6-6-6-6----6-6666---6-66666-6-6666--|
D|--6--6-6-6-6----6-6666---6-66666-6-6666--|

e|----------------------------------|
B|----------------------------------|
G|------------------8-88888\7-7777--|
D|--8-8888-8-8888---5-55555-5-5555--|
A|--6-6666-6-6666---6-66666-6-6666--|
D|--5-5555-5-5555---5-55555-5-5555--|

e|---------------------------------------------------|
B|---------------------------------------------------|
G|---------------------------------------------------|
D|--13-1313131313/15-1515-1515-15151515-15-15151515--|
A|--10-1010101010-10-1010-1010-10101010-10-10101010--|
D|--10-1010101010-10-1010-1010-10101010-10-10101010--|

e|---------------------------------------------------|
B|---------------------------------------------------|
G|---------------------------------------------------|
D|--12-12121212-12-12121212-12-12121212-12-12121212--|
A|--8--8-8-8-8--8--8-8-8-8--8--8-8-8-8--8--8-8-8-8---|
D|--8--8-8-8-8--8--8-8-8-8--8--8-8-8-8--8--8-8-8-8---|

Verse: same as intro, x2

Chorus:
e|------------------------------|
B|------------------------------|
G|----------------8-------------|
D|--6------5------8-x12--8------|
A|--6-x12--6-x12--6------8-x12--|
D|--6------5-------------8------|

Verse: x2
Chorus: till music fades out
Tap to rate this tab
 
# A B C D E F G H I J K L M N O P Q R S T U V W X Y Z