Song name
# A B C D E F G H I J K L M N O P Q R S T U V W X Y Z

For Today - Devastator tab

For Today-Devastator: Lead Guitar Tab
^:bend up
V:return bend
/:slide
~:vibrato

Intro:
d|-----------------------------------------------------|
a|-----------------------------------------------------|
f|---777777777777-^7777v-777777777777-10101010---------|
c|-----------------------------------------------------|
g|-----------------------------------------------------|
c|-----------------------------------------------------|

d|-----------------------------------------------------|
a|-----------------------------------------------------|
f|---777777777777-^7777v-777777777777-5555-------------|
c|-----------------------------------------------------|
g|-----------------------------------------------------|
c|-----------------------------------------------------|

d|------------------------------------|
a|------------------------------------|
f|------------------------------------|
c|------------------------------------|
g|0-00-0-00-1-------3/5--00-00-000----|
c|0-00-0-00---4-3-4------00-00-111----|
pm. .. . ..              .. .. ...

d|---------------------------------------------------------------------------|
a|---------------------------------------------------------------------------|
f|---------------------------------------------------------------------------|
c|-------------------------------3-333---------------------------------------|
g|0-00-0-00-1-------3/5--00-00---1-111-4-444---------------------------------|
c|0-00-0-00---4-3-4------00-00---------4-444---------------------------------|
pm. .. . ..              .. ..

d|---------------------------------------------------------------------------|
a|---------------------------------------------------------------------------|
f|------------------------------------15--11-14-10---------------------------|
c|---------------------------------------------------------------------------|
g|0-00-0-00-1-------3/5--00-00-000----13--9--12--8---------------------------|
c|0-00-0-00---4-3-4------00-00-111-------------------------------------------|
pm. .. . ..              .. .. ...

d|---------------------------------------------------------------------------|
a|---------------------------------------------------------------------------|
f|---------------------------------------------------------------------------|
c|---------------------------------------------------------------------------|
g|---------------------------------------------------------------------------|
c|000000540400-4h5p412p8888-11p7777-7h8p7-----------------------------------|
pm......  . ..          ....    ....






d|---------------------------------------------------------------------------|
a|---------------------------------------------------------------------------|
f|-------------------------------------------7h8p7---------------------------|
c|------------------------------------------------98-------------------------|
g|--------------------------------5-5-7-8-10---------------------------------|
c|000000540400-4h5p4------7-8-10--------------------------------------------|

d|---------------------------------------------------------------------------|
a|---------------------------------------------------------------------------|
f|---------------------------------------------------------------------------|
c|10000000-4-0000-0-0-0-0-7-0000---------------------------------------------|
g|10000000-4-0000-0-0-0-0-5-0000---------------------------------------------|
c|10000000-4-0000-0-0-0-0---0000---------------------------------------------|
pm .......   .... . . . .   ....

d|---------------------15-14--------------------------------------------------|
a|--------------------------15-14---------------------------------------------|
f|-----5-75----------------------15-14----------------------------------------|
c|--578----87-------------------------15-14-----------------------------------|
g|-----------------------------------------15~-13-12--------------------------|
c|---^repeat^-----------------------------------------------------------------|



Riff A:
d|---------------------------------------------------------------------------|
a|---------------------------------------------------------------------------|
f|---------------------------------------------------------------------------|
c|1-0-0--/5-4-0000000---8-87-------------------------------------------------|
g|1-0-0--/5-4-0000000---6-65-000000------------------------------------------|
c|1-0-0--/5-4-0000000----0---000000------------------------------------------|

d|---------------------------------------------------------------------------|
a|---------------------------------------------------------------------------|
f|---------------------------------------------------------------------------|
c|1-0-0--/5-4-0000000-0-0-0-0------------------------------------------------|
g|1-0-0--/5-4-0000000-0-0-0-0------------------------------------------------|
c|1-0-0--/5-4-0000000-0-0-0-0------------------------------------------------|

Repeat Riff A 4 times. 4th time played like this:


d|---------------------------------------------------------------------------|
a|---------------------------------------------------------------------------|
f|---------------------------------------------------------------------------|
c|1-0-0--/5-4-0000000-1-0-1-0------------------------------------------------|
g|1-0-0--/5-4-0000000-1-0-1-0------------------------------------------------|
c|1-0-0--/5-4-0000000-1-0-1-0------------------------------------------------|
pm  . .       .......	 .








Breakdown:x4

d|---------------------------------------------------------------------------|
a|---------------------------------------------------------------------------|
f|---------------------------------------------------------------------------|
c|1-0-0--/5-4-0-0-0-0-1-0-/5-4-0-0-0-----------------------------------------|
g|1-0-0--/5-4-0-0-0-0-1-0-/5-4-0-0-0-----------------------------------------|
c|1-0-0--/5-4-0-0-0-0-1-0-/5-4-0-0-0-----------------------------------------|
pm  . .       . . . .	 .      . . .

2nd Breakdown Riff

d|---------------------------------------------------------------------------|
a|---------------------------------------------------------------------------|
f|---------------------------------------------------------------------------|
c|--------------0-0-0-0-0-0--------------------------------------------------|
g|0-0000----000-0-0-0-0-0-0-------00000--------------------------------------|
c|0-0000----000-1-1-1-1-1-0-0-0-0-00000--------------------------------------|
pm. ....    ... . . . . . .       .....

Repeat several time:
d|---------------------------------------------------------------------------|
a|---------------------------------------------------------------------------|
f|---------------------------------------------------------------------------|
c|----------0-0-00------------5-4-1------------------------------------------|
g|-/6-------0-0-00---/6-------5-4-1------------------------------------------|
c|----7-8-4-0-0-00------7-8-4-5-4-1------------------------------------------|
pm          . . ..	       . .

Intro riff again until lead guitar joins in with same riff:

d|---------------------------------------------------------------------------|
a|---------------------------------------------------------------------------|
f|---------------------------------------------------------------------------|
c|0-0---0-000-0-0--0-0--5-4-1-0------0-0------0-0-------------------0-0------|
g|0-0---0-000-0-0--0-0--5-4-1-0------0-0------0-0-000-0-000-0000000-0-0------|
c|1-1---0-000-0-0--1-1--5-4-1-0-4~---1-1------1-1-000-0-000-0000000-1-1------|
pm. .   . ... . .  . .  . . . .      . .      . . ... . ... ....... . .
Tap to rate this tab
# A B C D E F G H I J K L M N O P Q R S T U V W X Y Z