Song name
# A B C D E F G H I J K L M N O P Q R S T U V W X Y Z

For Today - Fearless tab

Guitar tuning - C G C F A D

Fearless tab - for today

Slide - \
Bend - b
palm mute - *



Intro

D--------------------------------------------------------|
A--------------------------------------------------------|
F--------------------------------------------------------|
C-0-0-000-0-0-00000-0-00000-00000-0----------------------|
G-0-0-000-0-0-00000-0-00000-00000-0-11111-11111----------|
C-0-0-000-0-0-00000-0-00000-00000-0-33333-22222----------|
  * * *** * * ***** * ***** ***** * ***** *****

D--------------------------------------------------------|
A--------------------------------------------------------|
F--------------------------------------------------------|
C--------------------------------------------------------|
G-1111111-1-11111-11111-1111111-1-11111-1111-------------|
C-2222222-2-22222-33333-2222222-2-33333-2222-2b----------|
  ******* * ***** ***** ******* * ***** ****

Repeat these parts 2 times


D-------------------------------------------------------------|
A-------------------------------10101010----------------------|
F---------------6-7-9-------------------101010109999----------|
C---------------x-x-x-------------------------------11111111--|
G-0-00-00-00000-4-5-7--0-00-00--------------------------------|
C-0-00-00-00000--------0-00-00--------------------------------|
  * ** ** *****        * ** **

thats ill ive figured out so far all try to get the rest of the song up soon
Tap to rate this tab
# A B C D E F G H I J K L M N O P Q R S T U V W X Y Z