Song name
# A B C D E F G H I J K L M N O P Q R S T U V W X Y Z

Forbidden - Rip tab

Band- Forbidden
Song- RIP

Key
= after note = vibrato
^ after note = heavy vibrato
\ = slide down
/ = slide up
+ = tap
h = hammer
p = pull
n = natural harmonic
s = pinching harmonic (squeal)
* = tremolo pick
t = trill
b = bend
|-3-| = triplet

n number above the tab = play the first part then the first finishing part
			 play the first part a second time and then play the second finishing part
			 etc.

Riff 1

E ---------------------------------------------------------------------------|
B ---------------------------------------------------------------------------|
G -6------------------4--------12--------3------------------4----------------|
D ---------------------------------------------------------------------------|
A -4--------------x-x-2--------10--------1--------------x-x-2----------------|
E ---------------------------------------------------------------------------|

Riff 1A

E --------------------------------------------------------------------------|
B --------------------------------------------------------------------------|
G -----------------------------7--------------------------------------------|
D -4------------------5-----------------3------------------5----------------|
A ----------------x-x----------5--------------------------------------------|
E -2------------------3-----------------1--------------x-x-3----------------|

Riff 2

		          	    1	  			      2, 4
E --------------------------------- --------------------------------- ---------------------------------|
B --------------------------------- --------------------------------- ---------------------------------|
G --------------------------------- -----------------3--------------- -----------------------------6---|
D -4---5---4---5---4---5-------2--- -4---5---4---5-------5---4---5--- -4---5---4---5---5---4---2-------|
A -------------------------4------- --------------------------------- ---------------------------------|
E ---2---2---2---2---2---3---3---3- ---2---2---2---2---0---0---0---0- ---2---2---2---2---0---0---0---0-|

  3
E ---------------------------------|
B ---------------------------------|
G -----------------3---------------|
D -4---5---4---5-------5---4-------|
A -----------------------------2---|
E ---2---2---2---2---0---0---0---0-|

Riff 2A

				    1				      2, 2
E --------------------------------- --------------------------------- ---------------------------------|
B --------------------------------- --------------------------------- ---------------------------------|
G --------------------------------- --------------------------------- ---------------------------------|
D --------------------------------- -----------------4---2----------- -----------------2-----------5---|
A -4---5---4---5---4---5---1---2--- -4---5---4---5-----------5---2--- -4---5---4---5-------5---4-------|
E ---2---2---2---2---2---2---3---3- ---2---2---2---2---0---0---0---0- ---2---2---2---2---0---0---0---0-|

  3
E ---------------------------------|
B ---------------------------------|
G ---------------------------------|
D -----------------2---0-----------|
A -4---5---4---5-----------4-------|
E ---2---2---2---2---0---0---0-3-0-|

Riff 2B

E -----------------------------------------------------------------|
B -----------------------------------------------------------------|
G -------------------------------------------------3---------------|
D -4---5---4---5---4---5-------2---4---5---4---5-------5---4---5---|
A -------------------------4---------------------------------------|
E ---2---2---2---2---2---3---3---3---2---2---2---2---0---0---0---0-|

Riff 2C

E -----------------------------------------------------------------|
B -----------------------------------------------------------------|
G -----------------------------------------------------------------|
D -------------------------------------------------4---2-----------|
A -4---5---4---5---4---5---1---2---4---5---4---5-----------5---2---|
E ---2---2---2---2---2---2---3---3---2---2---2---2---0---0---0---0-|

Riff 3

E -----------------------------------------------------------------------------------------------------------------------|
B -----------------------------------------------------------------------------------------------------------------------|
G -----------------------------------------------------------------------------------------------------------------------|
D -4----------------------3-------4------------------------------4-----------------------3-----4-------------------5-----|
A -4--------------4---5-------5---4--------------5-4-2-----------4--------------4---5--------5-4----------------------5--|
E -2--2-2-2-2-2-2---2---2---2-----2--2-2-2-2-2-2-------3-2-1-0-0-2--2-2-2-2-2-2---2---2----2---2--2-2-2-2-2-2-3----------|

Riff 3A

E -----------------------------------------------------------------------------------------------------------------------|
B -----------------------------------------------------------------------------------------------------------------------|
G -----------------------------------------------------------------------------------------------------------------4-----|
D -4----------------------3-------4------------------------------4-----------------------3-----4----------------------5--|
A -4--------------4---5-------5---4--------------5-4-2-----------4--------------4---5--------5-4--------------2----------|
E -2--2-2-2-2-2-2---2---2---2-----2--2-2-2-2-2-2-------3-2-1-0-0-2--2-2-2-2-2-2---2---2----2---2--2-2-2-2-2-2------------|

Riff 3B

E ------------------------------------------------------------------|
B ------------------------------------------------------------------|
G ------------------------------------------------------------------|
D -------------------------3----------------------------------------|
A -4---------------4---5-------5---4----------------4-2-0-----------|
E ---2-2-2-2-2-2-2---2---2---2---2----2-2-2-2-2-2-2-------3-2-3-2-3-|

E ------------------------------------------------------------------|
B ------------------------------------------------------------------|
G ------------------------------------------------------------------|
D -------------------------3----------------------------------------|
A -4---------------4---5-------5---4----------------4-2-0-----------|
E ---2-2-2-2-2-2-2---2---2---2---2----2-2-2-2-2-2-2-------3-2-3-2-3-|

Riff 3C

E ------------------------------------------------------------------|
B ------------------------------------------------------------------|
G ------------------------------------------------------------------|
D -------------------------3----------------------------------------|
A -4---------------4---5-------5---4----------------4-2-0-----------|
E ---2-2-2-2-2-2-2---2---2---2---2----2-2-2-2-2-2-2-------3-2-3-2-3-|

E -------------------------------------------------------------|
B -------------------------------------------------------------|
G -------------------------------------------------------4-----|
D -------------------------3-----------------------------5--5--|
A -4---------------4---5-------5---4----------------2-------5--|
E ---2-2-2-2-2-2-2---2---2---2---2----2-2-2-2-2-2-2-3----------|

Riff 4

E ----------------------------------------------------------------------------|
B ----------------------------------------------------------------------------|
G --------------------------------------------------------3-------------------|
D -4------------5----3--------0----5----4------------5-------------5----5-----|
A -----------------------------------------------------------------5-------5--|
E -----------------------------------------------------------------3----------|

Riff 4A

E ----------------------------------------------------------------------------|
B ----------------------------------------------------------------------------|
G -3------------4----3--------0----4----3------------4----3-------------4-----|
D -----------------------------------------------------------------5-------5--|
A -----------------------------------------------------------------5----------|
E -----------------------------------------------------------------3----------|

Riff 5

E ----------------------------------------------------------------------------------------------------------------------------|
B ----------------------------------------------------------------------------------------------------------------------------|
G -------3-----6-----9-----6---3-----------3--3----------3--11---------3-----6-----9-----6---3-----------5--5----------5--12--|
D ----------------------------------------------------------------------------------------------------------------------------|
A -------1-----4-----7-----4---1-----------1--1----------1--9 ---------1-----4-----7-----4---1-----------3--3----------3--10--|
E -0-0-0---0-0---0-0---0-0---0---0-2-2-2-2-------2-2-2-2---------0-0-0---0-0---0-0---0-0---0---0-3-3-3-3-------3-3-3-3--------|

E --------------------------------------------------------------------------------------------------------------------------|
B --------------------------------------------------------------------------------------------------------------------------|
G -------3-----6-----9-----6---3-----------3--3----------3--3--------3-----6-----9----6------------------------3==========--|
D ---------------------------------------------------------------------------------------4--5---4---4--5---0--------------5-|
A -------1-----4-----7-----4---1-----------1--1----------1--1--------1-----4-----7----4--4--5---4-------------------------5-|
E -0-0-0---0-0---0-0---0-0---0---0-2-2-2-2-------2-2-2-2-------0-0-0------------------------------------------------------3-|

Riff 5A

E ----------------------------------------------------------------------------------------------------------------------------|
B ----------------------------------------------------------------------------------------------------------------------------|
G -------3-----6-----9-----6---3-----------3--3----------3--11---------3-----6-----9-----6---3-----------5--5----------5--12--|
D ----------------------------------------------------------------------------------------------------------------------------|
A -------1-----4-----7-----4---1-----------1--1----------1--9 ---------1-----4-----7-----4---1-----------3--3----------3--10--|
E -0-0-0---0-0---0-0---0-0---0---0-2-2-2-2-------2-2-2-2---------0-0-0---0-0---0-0---0-0---0---0-3-3-3-3-------3-3-3-3--------|

E -------------------------------------------------------------------------------------------------------------1==========--|
B --------------------------------------------------------------------------------------------------2--0---3--------------3-|
G -------3-----6-----9-----6---3-----------3--3----------3--3--------3-----6-----9----6-----------------------------------4-|
D ---------------------------------------------------------------------------------------4--5---4-------------------------5-|
A -------1-----4-----7-----4---1-----------1--1----------1--1--------1-----4-----7----4--4--5---4---------------------------|
E -0-0-0---0-0---0-0---0-0---0---0-2-2-2-2-------2-2-2-2-------0-0-0--------------------------------------------------------|

Riff 6

E ------------------------------------------------------------------------------------------------------------------------|
B ------------------------------------------------------------------------------------------------------------------------|
G ------------------------------------------------------------------------------------------------------------------------|
D ------------------------------------------------------------------------------------------------5-----5-----5-----5-----|
A -------------------------------3-2-----2-----2-----2-----------2-1-----1-----1-----1------------------------------------|
E -3-2-2-3-2-2-3-2-2-3-2-2-0-2-3-----3-3---3-3---3-3---3-3-0-2-3-----3-3---3-3---3-3---3-3-0-2-3----3-3---3-3---3-3---3-3-|

E ---------|
B ---------|
G ---------|
D ---------|
A -2-0-----|
E -----3-0-|

Riff 7

E ----------------------------------------------------------------------|
B ----------------------------------------------------------------------|
G ----------------------------------------------------------------------|
D ---------------------------5--------8---------------------------------|
A -1----------------2--------5--------8----------------2----------------|
E -2----------------3-----------------6----------------3----------------|

Fill 1

E ---------------------------------|
B ---------------------------------|
G ---------------------------------|
D ---------------------------------|
A -------------------------------1-|
E -3-2-2-3-2-2-3-2-2-3-2-2-0-2-3---|

Riff 8

E ---------------------------------------------------------------------------------------------|
B ---------------------------------------------------------------------------------------------|
G ---------------------------------------------------------------------------------------------|
D -11---12---11---12---11---12-11-9----9-11-8---9---8---9---9-8-------------8-432-432----------|
A ----9----9----9----9----9---------10--------------------------10-9-7-9-10-----------432------|
E --------------------------------------------6---6---6---6-------------------------------320--|
                                          |--3--| |--3-----------------------------------------|

Riff 9

E ------------------------------------------------------------------------------------------------|
B ------------------------------------------------------------------------------------------------|
G -------3-----6-----9-----------------4-----7-----10-----------------------------------4--3------|
D --------------------------------------------------------------------------------------4--3--4-4-|
A -------1-----4-----7-----2--1--------2-----5-----8 -----2--1--------------------------2--1--4-4-|
E -0-0-0---0-0---0-0---0-0-------3-0-0---0-0---0-0----0-0-------3-2-2-3-2-2-3-2-2-3-2-2-------2-2-|

Order

Riff 1/1A x 4
Riff 2/2A x 1
Riff 3/3A x 2
Riff 4/4A x 2
Riff 5/5A x 1
Riff 2B/2C x 2
Riff 3/3A x 2
Riff 4/4A x 2
Riff 5/5A x 1
Riff 6 x 2
Riff 6/1/1A x 2
Solo over Riff 3B x 3
Solo over Riff 3C x 1
Solo over Riff 7 x 4
Riff 3B/1/1A x 1
Riff 3C/1/1A x 1
Fill 1 x 1
Riff 8 x 1
Riff 2B/2C x 2
Riff 3/3A x 2
Riff 5/5A x 1
Riff 6 x 2
Riff 6/1/1A x 2
Solo over 7 x 2
Riff 2/2A x 1
Riff 9 x 1
Tap to rate this tab
# A B C D E F G H I J K L M N O P Q R S T U V W X Y Z