Song name
# A B C D E F G H I J K L M N O P Q R S T U V W X Y Z

Forbidden - Parting Of The Ways tab

Band- Forbidden
Song- Parting Of The Ways

Standard E tuning

Guitar 1
e|-------8-----7-----5-----------3-----1-----4-----|
B|---------5-----5-----5-------1---1-----1-----1---|
G|-----------5-----5-----5---1-------1-----1-----1-|
D|-----7-------------------3-----------------------|
A|---7---------------------------------------------|
E|-5-----------------------------------------------|

e|-------8-----7-----8------------11------------8-----|
B|---------5-----5-----5--------8----8--------8---8---|
G|-----------5-----5-----5----8--------8----8-------8-|
D|-----7-------------------10------------10-----------|
A|---7------------------------------------------------|
E|-5--------------------------------------------------|

e|-------8-----7-----5-----------3-----1-----4-----|
B|---------5-----5-----5-------1---1-----1-----1---|
G|-----------5-----5-----5---1-------1-----1-----1-|
D|-----7-------------------3-----------------------|
A|---7---------------------------------------------|
E|-5-----------------------------------------------|

e|-------8-----7-----8------------11-------------------|
B|---------5-----5-----5--------8----8---6-------------|
G|-----------5-----5-----5----8--------8---5---------5-|
D|-----7-------------------10----------------6-3/6-5---|
A|---7-------------------------------------------------|
E|-5---------------------------------------------------|

Do the above once more, with a second guitar doing a strumming that I can't quite catch.
Below also is a second guitar that I cannot catch.

Guitar 1
e|-----------------------------------------------------`-----------|
B|-----`-------------------------------`-----------12--11~---------|
G|-----9~--11--12----------------------9~--11--12------------------|
D|-/9--------------13--------------/9------------------------------|
A|---------------------13--14--13---------------------------14--13-|
E|-----------------------------------------------------------------|

e|-------------------------------------------------`---`-----------|
B|-----`-------------------------------`---`-------12--11~---------|
G|-----9~--11--12----------------------9~--11--12------------------|
D|-/9--------------13--------------/9------------------------------|
A|---------------------13--14--13---------------------------14--13-|
E|-----------------------------------------------------------------|
Tap to rate this tab
# A B C D E F G H I J K L M N O P Q R S T U V W X Y Z