Song name
# A B C D E F G H I J K L M N O P Q R S T U V W X Y Z

Force Vomit - Last Night I Said Goodbye tab

|----8---------------------------------------------------------------------|
|--8----9-8-6----6-8-8h9-8-6-----------------------------------------------|
|----------------------------5/6----666-5----5-6-5-------5---8---5---------| 
|------------------------------------------8-------8---8---8---8-----------|
|--------------------------------------------------------------------------|
|--------------------------------------------------------------------------|

|----8----------------8---8-8/9--999-8-----8-9-8-----------8--8h9-8-----8--|
|--8---9-8-6----6-8-9---9---------------11--------11---11------------11----|
|--------------------------------------------------------------------------| 
|--------------------------------------------------------------------------|
|--------------------------------------------------------------------------|
|--------------------------------------------------------------------------|

|--------------------------------------------------------------------------|
|----11-----9-8-6----------------------------------------------------------|
|--------------------------------------------------------------------------| 
|--------------------------------------------------------------------------|
|--------------------------------------------------------------------------|
|--------------------------------------------------------------------------|

That's it! =)
Last Night I said Goodbye
Tabs by : FeE Cruise
Any changes pls email feecruise@hotmail.com
Tap to rate this tab
 
# A B C D E F G H I J K L M N O P Q R S T U V W X Y Z