Song name
# A B C D E F G H I J K L M N O P Q R S T U V W X Y Z

Force Vomit - Last Night I Say Goodbye tab

Band: Force Vomit
Title: Last Night I say Goodbye (intro)
Tabbed By: Hudieno

my e-mail: elec.t.ric@hotmail.com

hey dude, first time tabbing out.. so, correct me if there is any mistake..
follow the song.. and you get the timing...



turning: standard

|-------------------|---------------------------|
|----12h------------|---------------------------|
|--------12-11-9~---|--9-11-12--12-11-9---------|
|--9----------------|-------------------9-10~---|
|-------------------|---------------------------|
|-------------------|---------------------------|


|--------------------------|---------------------|
|--------------------------|---------------------|
|--------------------------|---------------------|
|--10101010-9-7-9-10-9-7~--|-7h9~--10-9-7-9~-----|
|--------------------------|---------------------|
|--------------------------|---------------------|


|-------------------|---------------------------|
|----12h------------|---------------------------|
|--------12-11-9~---|----------12----12-13~-----|
|--9----------------|--9-11-12----12------------|
|-------------------|---------------------------|
|-------------------|---------------------------|


|------------------------------------------------------|
|--13131313-12-10-12-13-12-10~---10h12~--13-12-10-12~--|
|------------------------------------------------------|
|------------------------------------------------------|
|------------------------------------------------------|
|------------------------------------------------------|

|--------------|
|--------------|
|--12-11-10-9--|
|--------------|
|--------------|
|--------------|

hmm?.. so dude how.. pretty easy rite..

Tap to rate this tab
# A B C D E F G H I J K L M N O P Q R S T U V W X Y Z