Song name
# A B C D E F G H I J K L M N O P Q R S T U V W X Y Z

Foreign Objects - Disengage The Simulator tab

Yo Yo Yo, this is Disengage by Foreign Objects, its fairly easy so lets get going.

Tuning: Step down

*=palm muting (pretty much the only technique needed)

Main Riff

e----------------------------|
b----------------------------|
g----------------------------|
d------4------4---3----------|    2x
a-----4------4-4-1-4---------|
E-2222---2222----------------|
  ****   ****

e----------------------------|
b----------------------------|
g----------------------------|
d------4-4-6-6-----6-6-8-8---|    2x
a--6-6---------4-4-----------|
E----------------------------|
   * *         * *

Repeat those twice

Then Main riff stays the same but the bit after changes to this

e------------------------------------------------------|
b------------------------------------------------------|
g------------------------------6-6-8-8-----8-8-10-10---|
d------4-4-6-6-----6-6-8-8-8-8---------6-6-------------|
a--6-6---------4-4-------------------------------------|
E------------------------------------------------------|
   * *         * *         * *         * *

(Try not to mute too hard on the higher notes cos it will sound crap)


Riff 2

e------------------------------|
b------------------------------|
g-------------------------9-9--| 4x
d-----4-2-----7-6-------6------|
a-4-4-----4/7-----9-6-7--------|
E-2-2--------------------------|

At the end of the 4th time there is a little bit

------------|
------------|
-----11-11--|
---8--------|
-9----------|
------------|

Not to sure of the rest
ill work on it

email if you want to critiicize (not that ill care)
commandercod1@hotmail.com

laters
Tap to rate this tab
# A B C D E F G H I J K L M N O P Q R S T U V W X Y Z