Guitaretab - guitar tabs
Song name
# A B C D E F G H I J K L M N O P Q R S T U V W X Y Z

Foreign Objects - Universal Culture Shock tab

Foreign Objects: Universal Culture Shock

NOTE: the songs which have a star next to them means i dont have the tab for it.these
are other people work so im not taking credit for any of it except that i just put them
to make the Foreign Objects-UCS re-release 2004 Album. It makes life easier to have it 
1 album not searching around for them for hours.I'm gonna spend some time trying to find
tabs for the TUNAC album so wait around for that.enjoy.
1.Test It Out
2.Universal Culture Shock
3.Genesis 12A
4.They Come In Peace
5.Chemical Control
6.Puzzled
7.Disengage The Simulator
8.Cosmic Consciousness*
9.Planetary
10.Victory (Over Neptune)
11.Big Boy (bonus)*

1.Test It Out
Tuning: Standard

INTRO Play x4
----------------------------------------------10----12-------------10---12------|
----------10----12--------------------------------------------10----------------|
-------11----------------12----11----9---------------------------------------7--|
-9-12-------9-------9-12-----9----9----9-12-----9------9-8-7----7----7----7-----|
--------------------------------------------------------------------------------|
--------------------------------------------------------------------------------|


RIFF A Play x8
-----------------------------------------|
-----------------------------------------|
--------------2----4/6-------------------|
----------4----------------------2-----2-|
-2--5-------------------2--5-------------|
--------5----------------------3-----3---|


RIFF B Play x2
-------------------------------------------------------------|
-------------------------------------------------------------|
---------------------------------------4---4-2-----------2---|
-----------------------------------4-----4-----2---2---2-----|
-2---5-4-------2---5-4---------2-5---2-----------0---4-----0-|
---------5-2-5---------5-2-5-3-------------------------------|


INTRO Play x1
----------------------------------------------10----12-------------10---12-|
----------10----12--------------------------------------------10-----------|
-------11----------------12----11----9-------------------------------------|
-9-12-------9-------9-12-----9----9-----12-9----9-------9-8-7----7----7----|
---------------------------------------------------------------------------|
---------------------------------------------------------------------------|


RIFF A Play x8
-----------------------------------------|
-----------------------------------------|
--------------2----4/6-------------------|
----------4----------------------2-----2-|
-2--5-------------------2--5-------------|
--------5----------------------3-----3---|


RIFF B Play x4
-------------------------------------------------------------|
-------------------------------------------------------------|
---------------------------------------4---4-2-----------2---|
-----------------------------------4-----4-----2---2---2-----|
-2---5-4-------2---5-4---------2-5---2-----------0---4-----0-|
---------5-2-5---------5-2-5-3-------------------------------|


HALF INTRO Play x1
----------------------|
----------10----12----|
-------11-------------|
-9-12-------9-------9-|
----------------------|
----------------------|


BRIDGE Play x8
----------------------------------|
----------------------------------|
----------------------------------|
--------4---6---------------------|
------6------------7-7---6-7----7-|
-4-7------4---4--4------------7---|


RIFF B Play x4
-------------------------------------------------------------|
-------------------------------------------------------------|
---------------------------------------4---4-2-----------2---|
-----------------------------------4-----4-----2---2---2-----|
-2---5-4-------2---5-4---------2-5---2-----------0---4-----0-|
---------5-2-5---------5-2-5-3-------------------------------|


RIFF A Play x8
-----------------------------------------|
-----------------------------------------|
--------------2----4/6-------------------|
----------4----------------------2-----2-|
-2--5-------------------2--5-------------|
--------5----------------------3-----3---|

2.Universal Culture Shock
Tuning: Standard

AFTER HEAVY INTRO:
Riff A
---------------------------------------------|
---------------------------------------------|
--------5------------------------------------|
-7--5-7---7-5-3-5---3-5-5-3-5----------------|
-5----------------3-----3--------------------|
------------------1--------------------------|x4

Riff B
---------------------------------------------|
---------------------------------------------|
-----------------------------7-5-3-2---------|
-------7-5-3-2-----------------------5-3-5-7-|
---8-----------5-3-5-7---7-------------------|
-6---6-----------------5---5-----------------|x4

Chords:
---------------------------------------------|
---------------------------------------------|
---------------------------------------------|
----3--5--------10--5--9---------------------|
-3--1--3--7--8--8---3--7---------------------|
-1--------5--6-------------------------------|

3.Genesis 12A
Tuning: Standard

Riff 1   main x4
---------------------------------------------------------------------|
---------------------------------------------------------------------|
---------------------------------------------------------------------|
---------------------------------------------------------------------|
-----------7/8\7/8-----------------------------------5/6\5/6---------|
-----5--5--------------------------------------3--3------------------|
                       x2                                        x2

Riff 2 - somewhat muted when played x2

------------------------------------------------------------------------------------------------------|
------------------------------------------------------------------------------------------------------|
------------------------------------------------------------------------------------------------------|
-----------------------7---------5--------------------3-------2-----------------7----5----------------|
----------------------------------------3-------3---------------------------------------------3-2-----|

--3---------|

Play Riff2 x2 but a little heavier and no muting
Then play Riff2 x2 muted.

Riff 3
Part A
e:|----------------------------------------------------------------------------|
B:|----------------------------------------------------------------------------|
G:|----------------------------------------------------------------------------|
D:|----------------------------------------------------------------------------|
A:|-----------------------3---3---3------5------------------3---3---3------5---|
E:|------5---5---5---5------------------------5---5---5------------------------|

Part B
e:|-----------------------------------------------------------------------------|
B:|-----------------------------------------------------------------------------|
G:|-----------------------------------------------------------------------------|
D:|-----------------------------------------------------------------------------|
A:|-----------------------3---3---3------5-------------------3---3---3------5---|
E:|------3---3---3---3------------------------3---3---3-------------------------|

Part C
e:|-----------------------------------------------------------------------------|
B:|-----------------------------------------------------------------------------|
G:|-----------------------------------------------------------------------------|
D:|-----------------------------------------------------------------------------|
A:|-----------------------3---3---3------5------------------3---3---3------5----|
E:|------5---5---5---5------------------------5---5---5-------------------------|

Part D
e:|-----------------------------------------------------------------------------|
B:|-----------------------------------------------------------------------------|
G:|-----------------------------------------------------------------------------|
D:|-----------------------------------------------------------------------------|
A:|-----------------------3---3---3------5------------5---7-----5----3----------|
E:|------3---3---3---3------------------------3---3-----------------------------|


Repeat Riff 3, 2 times

Go back into Riff 2

Then back to Riff 3 and repeat it 2 times

Riff 4
--------------------------------------------------------------------------|
--------------------------------------------------------------------------|
--------------------------------------------------------4---------6-------|
-----------------------6---6---6------8-----------------------------------|
--------------------------------------------------------------------------|
-----4---4---4---4--------------------------0---0---0------0---0----------|

Riff 4 continued

----------------------------------------------------------------------------|
----------------------------------------------------------------------------|
----------------------------------------------------------------------------|
-----------------------6---6---6------8------------------5---5---5-----6----|
----4---4---4---4--------------------------6---6---6------------------------|
----------------------------------------------------------------------------|

4.They Come In Peace
Tuning: Drop D

Various palm muting places; just mess around

INTRO RIFFS
----------------------------------------------------------------------------|
----------------------------------------------------------------------------|
-------5-----5-2------------------5---5-2-----------------------------------|
-3---3-----------5--3-5-----3---3---------5--3-5---5---5---3----------------|
---3------3-------------5-----3-----3------------5---3---1------------------|
----------------------------------------------------------------------------|

CHORD
------------------|
------------------|
10-10----12-12-12-|
x--x------x--x--x-|
8--8-----10-10-10-|
------8-----------|

Play Once:
------------------------|
------------------------|
-10-10---12-12-12-------|
-10-10---12-12-12-------|
-8--8----10-10-10-8-5-8-|
-------8----------------|

Then this twice:
-------------------------------|
-------------------------------|
-3-----------------------------|
-x--------/3-------------------|
-1-4-1-4------4-6-4----4---4---|
---------------------2---4---5-|

Then:
---------------------------|
---------------------------|
---------------------------|
---------3-----------------|
-1-4-1-4---4-6-4---4---4---|
-----------------2---4---5-|


Then this once:
--------------------------|
--------------------------|
--------------------------|
-----/3-------------------|
-1-4-----4-6-4----4---4---|
----------------2---4---5-|

5.Chemical Control
Tuning: Half Step Down

-----------------------------------------------------|
-----------------------------------------------------|
------------6------------6------------6------------6-|
-------5-5~---------5-5~---------5-5~---------5-5~---|
---4-4----------4-4----------4-4----------4-4--------|
-3------------3------------3------------3------------|

--------------------------------|
--------------------------------|
--------------------------6-----|
-5----------------------5-----5-|
-5-------------4----4-4-----4---|
-3--3-5h6p5h6--2--3-------------|


---------------------------------------------------------------------|
---------------------------------------------------------------------|
------------6----------------6----------------6----------------6-----|
-------/5-5-----5-------/5-5-----5-------/5-5-----5-------/5-5-----5-|
---4-4--------4-----4-4--------4-----4-4--------4-----4-4--------4---|
-3----------------3----------------3----------------3----------------|

--------------------------------------------------------|
--------------------------------------------------------|
------------------------------------------------------6-|
-5---------------------------5----------------------5---|
-5-------------4--------/6-0-5-------------4----4-4-----|
-3--3-5h6p5h6--2--3--3-------3--3-5h6p5h6--2--3---------|

Play That Twice then place this twice:

-----------------------------------------------------------------|
-----------------------------------------------------------------|
-----------------------------------------------------------------|
-----------------------------------------------------------------|
---4-2-4---4-2-4---4-2-4---4-2-4---4-2-4---4-2-4---4-2-4---4-2-4-|
-3-------3-------3-------3-------3-------3-------3-------3-------|

Then play this twice:
[ Tab from: http://www.guitaretab.com/f/foreign-objects/61038.html ]
--------------------------------------------------------|
--------------------------------------------------------|
------------------------------------------------------6-|
-5---------------------------5----------------------5---|
-5-------------4--------/6-0-5-------------4----4-4-----|
-3--3-5h6p5h6--2--3--3-------3--3-5h6p5h6--2--3---------|

---------------------------------|
---------------------------------|
---------------------------------|
---------------------------------|
---4-2-4---4-2-4---4-2-4---4-2-4-|
-3-------3-------3-------3-------|
PM. . . . . . . . . . . . . . . .

---------------------------------|
---------------------------------|
---6-4-6---6-4-6---6-4-6---6-4-6-|
-5-5-3-5-5-5-3-5-5-5-3-5-5-5-3-5-|
-4-4-2-4-4-4-2-4-4-4-2-4-4-4-2-4-|
-3-------3-------3-------3-------|
PM. . . . . . . . . . . . . . . .


-----------------------------------------------------------------|
-----------------------------------------------------------------|
-----------------------------------------------------------------|
-----------------------------------------------------------------|
---4-2-4---4-2-4---4-2-4---4-2-4---4-2-4---4-2-4---4-2-4---4-2-4-|
-3-------3-------3-------3-------3-------3-------3-------3-------|

-----------------------------------------------------------------|
-----------------------------------------------------------------|
---6-4-6---6-4-6---6-4-6---6-4-6---6-4-6---6-4-6---6-4-6---6-4-6-|
-5-5-3-5-5-5-3-5-5-5-3-5-5-5-3-5-5-5-3-5-5-5-3-5-5-5-3-5-5-5-3-5-|
-4-4-2-4-4-4-2-4-4-4-2-4-4-4-2-4-4-4-2-4-4-4-2-4-4-4-2-4-4-4-2-4-|
-3-------3-------3-------3-------3-------3-------3-------3-------|


Then play this twice:

--------------------------------------------------------|
--------------------------------------------------------|
------------------------------------------------------6-|
-5---------------------------5----------------------5---|
-5-------------4--------/6-0-5-------------4----4-4-----|
-3--3-5h6p5h6--2--3--3-------3--3-5h6p5h6--2--3---------|


---------------------------------------------------------------------|
---------------------------------------------------------------------|
---------------------------------------------------------------------|
---664466--664466--664466--664466--664466--664466--664466--664466-6--|
-55------55------55------55------55------55------55------55-------5--|
---------------------------------------------------------------------|

-----------------|
-----------------|
-----------------|
-----------------|
-4--6\4--/10-6\4-|
-3--5\3--/9--5\3-|

Play that multiple times then play this:

---------------------------------------------------------------------|
---------------------------------------------------------------------|
------------6----------------6----------------6----------------6-----|
-------/5-5-----5-------/5-5-----5-------/5-5-----5-------/5-5-----5-|
---4-4--------4-----4-4--------4-----4-4--------4-----4-4--------4---|
-3----------------3----------------3----------------3----------------|

Then play this multiple times again:

-----------------|
-----------------|
-----------------|
-----------------|
-4--6\4--/10-6\4-|
-3--5\3--/9--5\3-|

Then play this 19 times:

---------------------------------|
---------------------------------|
---------------------------------|
---------------------------------|
---4-2-4---4-2-4---4-2-4---4-2-4-|
-3-------3-------3-------3-------|

Then for the outro:

--------------------------------------------------------------|
--------------------------------------------------------------|
--------------------------------------------------------------|
--------------------------------------------------------------|
---5-3-5---6-4-6---7-5-7---8-6-8---9-7-9---10-9-10----11-9-11-|
-4-------5-------6-------7-------8-------9---------10---------|

-------------------------------------------------------------------|
-------------------------------------------------------------------|
-------------------------------------------------------------------|
-------------------------------------------------------------------|
---10-9-10---9-7-9---8-6-8---7-5-7---6-4-6---5-3-5---4-2-4---4-2-4-|
-9---------8-------7-------6-------5-------4-------3-------3-------|

--------|
--------|
--------|
--5-----|
--4-----|
--3-----|

6.Puzzled
Tuning: Half Step Down

Main riff:
--13(x9)--------------------------------|
----------------------------------------|
--------------0-0-0-7h8p7p0-------------|
----------------------------------------|
----------------------------------------|
----------------------------------------|

Variation:

-----------------------------------------------|
-----------------------------------------------|
----10-----------------------------------------|
----x---(x9)-----0-0-0-7h8p7p0-----------------|
----8------------------------------------------|
-----------------------------------------------|
        .

Pick slide and then

Other Main riff - Palm Muted
-----------------------------------------|
-----------------------------------------|(1/3) > when needed (octave)
-----------------------------------------|
-----------------------------------------|
----3-3-3-3-3-32---2---3-3-3--x-x--3/5--|
--- 1-1-1-1-1-10---0---1-1-1--x-x-------|


Riff 2 (high-sounding riffs over these two power chords)
---------------|
---------------|
---------------|
---------------|
----3---5------|
----1---3------|

Other Riff
---------------------------------12-(12)>--------------------------|
--------------------------------------12---------------------------|
----------------------9---12---------------------------------------|
-------------9-----------------------------------------------------|
----710-------10--------------------------------------------------|
-------------------------------------------------------------------|
       .      .       .    .

Riff 3 (first time played with high alien riffs)
-------------------------------------|
-------------------------------------|
-------------------------------------|
-------------------------------------|
----3-----3-3---15/-3-3--------------|
----1-----1-1---13/-1-1--------------|

End with main riff and main riff variation played over "riff 2" power chords with wah. 
on:

-----|
-----|
-----|
-----|
--3--|
--1--|

Key:
p- pull-off
h- hammer-on
/-Slide
. - Palm mute

7.Disengage The Simulator
Tuning: Standard

*=Palm muting (pretty much the only technique needed)

Main Riff

----------------------------|
----------------------------|
----------------------------|
------4------4---3----------| 2x
-----4------4-4-1-4---------|
-2222---2222----------------|
  ****   ****

----------------------------|
----------------------------|
----------------------------|
------4-4-6-6-----6-6-8-8---| 2x
--6-6---------4-4-----------|
----------------------------|
   * *         * *

Repeat those twice

Then Main riff stays the same but the bit after changes to this

------------------------------------------------------|
------------------------------------------------------|
------------------------------6-6-8-8-----8-8-10-10---|
------4-4-6-6-----6-6-8-8-8-8---------6-6-------------|
--6-6---------4-4-------------------------------------|
------------------------------------------------------|
   * *         * *         * *         * *


Riff 2

------------------------------|
------------------------------|
-------------------------9-9--| 4x
-----4-2-----7-6-------6------|
-4-4-----4/7-----9-6-7--------|
-2-2--------------------------|

At the end of the 4th time there is a little bit

------------|
------------|
-----11-11--|
---8--------|
-9----------|
------------|

8.Cosmic Consciousness
9.Planetary
Tuning:1/2 step down
Main Riff/Intro x4
-----------------------------------------------------------------------------|
-----------------------------------------------------------------------------|
--------5---9--0-----9--0-------------5---7--0----7------5-------------------|
------7---7-----------------5-------7---7------------------------------------|
---0--------------7-------7------0--------------7----7-----------------------|
-----------------------------------------------------------------------------|

    Riff a                         riff B   x2
-----------------------------------------------------------------------------|
-----------------------------------------------------------------------------|
-------------------9999--7777------------------------------------------------|
--77777-77-7777----9999--7777------------------------------------------------|
--77777-77-7777----7777--5555------------------------------------------------|
--55555-55-5555--------------------0-2-0-2-0-2-0-2-4-0-4-0-4-0-4-0-----------|


(Play Riff a, guitar 2) Solo
-----------------------------------------------------------------------------|
-----------------------------------------------------------------------------|
--------------------------------------------------------------------------9--|
--9--7p5h7~---7-5-7-12-10---9\7---7\5/7----------7/9---7/12-7/9-7-5-7-5h7----|
----------------------------------------7--5-77------------------------------|
-----------------------------------------------------------------------------|


-----------------------------------------------------------------------------|
-----------------------------------------------------------------------------|
--7--------------------------------------------------------------------------|
-----9-7--5h7-7/9--9/12--14-12-14h16-14-12-----------------------------------|
-----------------------------------------------------------------------------|
-----------------------------------------------------------------------------|

Break after solo
-----------------------------------------------------------------------------|
-----------------------------------------------------------------------------|
--5----5555--7-5555-5--7-5555-5--7-5555/9999---------------------------------|
--5--------------------------------------------------------------------------|
--3--------------------------------------------------------------------------|
-----------------------------------------------------------------------------|


Riff Guitar 2
---------------------------------------------------------------------------------|
---------------------------------------------------------------------------------|
---------------------------------------------------------------------------------|
---------------------------------------------------------------------------------|
--/12vv-/11vv-/10vv-/9vv-8-7vvvv-------------------------------------------------|
---------------------------------------------------------------------------------|

Outro
------------------------------------------------------------------------------|
------------------------------------------------------------------------------|
----------------9-9-xx7-7-----------------------------------------------------|
--(7)-(5)---------------------------------------------------------------------|
----------(7)-----------------------------------------------------------------|
---5---3---0------------------------------------------------------------------|


10.Victory (over Neptune)
Tuning: 1/2 step down

Part a x4
-|------------------------------------------------------------------|
-|------------------------------------------------------------------|
-|------------------------------------------------------------------|
-|-----------7--5-------------9---7--5--7--0------------------------|
-|-7----7-5--------5---7--------------------------------------------|
-|------------------------------------------------------------------|

Part B x2
-|------------------------------------------------------------------|
-|------------------------------------------------------------------|
-|------------------------------------------------------------------|
-|---9---10---9---9-----------9----10----9----9------9----10-12--14-|
-|-8---8----8---8-------10-12---12----12---12-----12---12-----------|
-|------------------------------------------------------------------|
 Pm.   .    .   .  X2       .    .     .    .      .    .

Part C (fade out)
-|------------------------------------------------------------------|
-|------------------------------------------------------------------|
-|------------------------------------------------------------------|
-|------------------------------------------------------------------|
-|-2----4---0---4-4-0--4--2----5/7-5--5/7--10/12-10-10/12-----------|
-|------------------------------------------------------------------|


11.Big Boy (bonus)
Related for Universal Culture Shock tab