Song name
# A B C D E F G H I J K L M N O P Q R S T U V W X Y Z

Foreigner - Headknocker tab

-------------------------------------------------------------------------------
			     Headknocker - Foreigner
-------------------------------------------------------------------------------
Tabbed by: jordand33


Tuning:standard

e|---------------|-------14-17----------------17-|----17b19-17b19r17-14----|
B|-17b19=========|=17b19-------17b19r17p14-------|-14-------------------17-|
G|---------------|-------------------------17----|-------------------------|
D|---------------|-------------------------------|-------------------------|
A|---------------|-------------------------------|-------------------------|
E|---------------|-------------------------------|-------------------------|


e|---------------|-------14-17----------------17---------17----16----14----|
B|-17b19=========|=17b19-------17b19r17p14------------14----14----14-------|
G|---------------|-------------------------17------------------------------|
D|---------------|---------------------------------------------------------|
A|---------------|---------------------------------------------------------|
E|---------------|---------------------------------------------------------|
Tap to rate this tab
# A B C D E F G H I J K L M N O P Q R S T U V W X Y Z