Song name
# A B C D E F G H I J K L M N O P Q R S T U V W X Y Z

Foreigner - Back Where You Belong tab

This is my first guitar tab so bare with me. I figured that if no one else will submit 
this song, I will. Here you go... its in drop D tuning

Verse:
Repeat this till you get to the bridge...
E|-------0--------|-------0--------|-------0--------|-------0--------|
B|---4-------4----|---4-------4----|---4-------4----|---4-------4----|
G|----------------|----------------|----------------|----------------|
D|-7---7---------7|-6---6---------6|-5---5---------5|-4---4---------4|
A|----------------|----------------|----------------|----------------|
D|----------------|----------------|----------------|----------------|

Bridge:
E|----------------|----------------|----------------|
B|----------------|----------------|----------------|
G|----------------|----------------|----------------|
D|-4-4-4-4-4-4-4-4|-4-4-4-4-4-4-4-4|-4-4-4-2-2---6--| X3
A|-4-4-4-4-4-4-4-4|-4-4-4-4-4-4-4-4|-4-4-4-2-2---6--|
D|-4-4-4-4-4-4-4-4|-4-4-4-4-4-4-4-4|-4-4-4-2-2---6--|
then...
E|----------------|----------------|----------------|
B|----------------|----------------|----------------|
G|----------------|----------------|-------4-4------|
D|---4-4-4-4-4-4-4|-4-4-4-4-4-4-4-4|-4-4-4-4-4---1--|
A|---4-4-4-4-4-4-4|-4-4-4-4-4-4-4-4|-4-4-4-2-2---1--|
D|---4-4-4-4-4-4-4|-4-4-4-4-4-4-4-4|-4-4-4-------1--|
then...
E|----------------|----------------|----------------|----------------|
B|----------------|----------------|----------------|----------------|
G|----------------|-------4-4------|---------------4|-------4-4------|
D|-6-----6-6-----4|-------4-4---1--|-6-----4-4-----4|-------4-4---1--| X3
A|-6-----6-6-----4|-------2-2---1--|-6-----4-4-----2|-------2-2---1--|
D|-6-----6-6-----4|-------------1--|-6-----4-4------|-------------1--|
then...
E|----------------|----------------|----------------|----------------|
B|----------------|----------------|----------------|----------------|
G|----------------|-------4-4------|----------------|----------------|
D|-6-----6-6-----4|-------4-4---1--|-6-----4-4------|-2-2-2-2-2-2-2/5|
A|-6-----6-6-----4|-------2-2---1--|-6-----4-4------|-2-2-2-2-2-2-2/5|
D|-6-----6-6-----4|-------------1--|-6-----4-4------|-2-2-2-2-2-2-2/5|

then go back and play the verse till the song ends and your done.
Tap to rate this tab
# A B C D E F G H I J K L M N O P Q R S T U V W X Y Z